Oops, an error
Loading. Please wait.

17 18-25 Bass Tab

256 views 3 this week
no commentswrite comment
1 2 3 4 5
please rate
add to favorites
launch autoscroll
font size
0
reset
guitar tuner
Tab Pro tools
  • play this tab
  • loop segment
  • change instrument
  • show fretboard
  • metronome
×
Best way to learn
"17 18-25"
Autoscroll
slow
fast
+/-
esc
set tempo
stop
Contributor
Difficulty
intermediate
-------------------------------------------------------------------------------
			     17% 18-25 - The Suicide Machines
-------------------------------------------------------------------------------

Tabbed By : explsnofsound
e-mail: squashbucket70@yahoo.com

Tuning: Standard EADG

Intro
G|---------|
D|---------|
A|---------|
E|-444444--|

Verse 1  x2       (x3)                  (x1)
G|-------------------|-------------------------------------------------------|
D|-------------------|--4/66666-----6-66-------------------------------------|
A|----------4-4------|-----------4-4-----------------------------------------|
E|--2/44444-----4-44-|-------------------------------------------------------|

Chorus 1
G|---------------------------------------------------------------------------|
D|---------------------4444444444444444-2222222222222222---------------------|
A|------------------2h4------------------------------------------------------|
E|--222222222222-2h4--------------------------------------000000000h2000000--|

Verse 2 is exactly the same as verse 1

Chorus 2
G|---------------------------------------------------------------------------|
D|--------------44444444-------44444444-2222222222222222---------------------|
A|---------2h4------------2h4------------------------------------------------|
E|--222222---------222222--------------------------------00000000------------|

Chorus 2 continued (this fill is fast)
G|---------------------------------------------------------------------------|
D|---------2-----------------------------------------------------------------|
A|-----2h4---4-2h4-----------------------------------------------------------|
E|--2h4----------------------------------------------------------------------|

Verse 3  x4
G|---------------------------------------------------------------------------|
D|---------------------------------------------------------------------------|
A|---------------------------------------------------------------------------|
E|--2/44444-4444444-2/44444---5-55--7-77-------------------------------------|

Ending Riff 1 x2
G|---------------------------------------------------------------------------|
D|---------------------------------------------------------------------------|
A|---------------------------------------------------------------------------|
E|--44444-44444-44444-0-0-2~-------------------------------------------------|

Ending Riff 2 x2                              End On This
G|--------------------------------------|------------------------------------|
D|--------------------------------------|------------------------------------|
A|-------6-------4-------0h2------------|------------------------------------|
E|--44444---44444---44444-----0-0-2-----|----4~--444444----------------------|


| /  slide up
| \  slide down
| h  hammer-on
| p  pull-off
| ~  vibrato
| +  harmonic
| x  Mute note
===============================================================================
comments
We did not receive enough feedback on this tab! Please rate:
print report bad tab
1 2 3 4 5
I want to post or [tab]
guest
You may want to rate the tab now too:
select rating
Please do not post tabs as comments. Select "correction" instead!