Oops, an error
Loading. Please wait.

95 Percent Of The World Is Third World Bass Tab

452 views 3 this week
no commentswrite comment
1 2 3 4 5
excellent!
x 1
add to favorites
launch autoscroll
font size
0
reset
guitar tuner
Tab Pro tools
  • play this tab
  • loop segment
  • change instrument
  • show fretboard
  • metronome
Autoscroll
slow
fast
+/-
esc
set tempo
stop
Contributor
-------------------------------------------------------------------------------
	  95% Of The World Is Third Word - The Suicide Machines
-------------------------------------------------------------------------------

Tabbed By : StrictlyRude (Eric F)
e-mail: blindpuncher@gmail.com

Tuning:EADG
   Intra
G|--------------------------------------------------------------------------|
D|----7--7--7---7-----------------------------------------------------------|
A|0000-00-00-000-000000000---This repeats for the intro---------------------|
E|--------------------------------------------------------------------------|
   Pre-Chours/post intro
G|--------------------------------------------------------------------------|
D|--------------------------------------------------------------------------|
A|870-3-33-870-5-55---------------------------------------------------------|
E|----------------------play as needed -------------------------------------|
   Chorus
G|-------------|-----------------------|------------------------------------|
D|-----77------|-----------------------|5h7-5-------------------------------|
A|-5588--88----|-----------5h7-5-------|------875---------------------------|
E|-------------|end fills--------87578-|----------87------------------------|
   Verse 1!
G|-------------------------------------------Last three notes could be wrong|
D|-----------------------------------------------5--------------------------|
A|-3-3----3-3/5h7-5---3-3---3-3----3-3-----3-3-7---7--3-3----3--------------|
E|-----535---------------535---3-5-----535----------------535--1-3-5--------|

   Chorus
G|-------------|-----------------------|------------------------------------|
D|-----77------|-----------------------|5h7-5-------------------------------|
A|-5588--88----|-----------5h7-5-------|------875---------------------------|
E|-------------|end fills--------87578-|----------87------------------------|
  Verse 2!( not much really changed....)
G|-------------------------------------------Last three notes could be wrong|
D|------------------------------------------------5-------------------------|
A|-3-3----3-3/5h7-5---3-3---3-3/5h7--3-3-----3-3-7--7-3-3-----3-------------|
E|-----535---------------535-------------535--------------535---1-3-5-------|

   back to intra! (this part gets iffy, sard to hear, also sorry this part dosent really fit)
G|------------------------|-------10--------------9----------------7--------------9--------|
D|----7--7--7---7---------|---------------------------------------------------------7777777|
A|0000-00-00-000-000000000|0000000--00000000000000--00000000000000---00000000000000--------|
E|------------------------|----------------------------------------------------------------|

   Pre-Chours/post intro
G|--------------------------------------------------------------------------|
D|--------------------------------------------------------------------------|
A|870-3-33-870-5-55---------------------------------------------------------|
E|----------------------play as needed -------------------------------------|
   Outra(sreally just the chorus, but with a diff ending n its really not THAT different)
G|-------------|-----------------------|-------------|----------------------|
D|-----77------|-----------------------|5h7-5--------|----------------------|
A|-5588--88----|-----------5h7-5-------|------875----|5h7-5------5----------|
E|-------------|end fills--------87578-|----------87-|------8757------------|

fin
BTW im also the nublet who tabbed the Mad Caddies "Without You," but it just 
shows up as unregestered

========================================================================
comments
We did not receive enough feedback on this tab! Please rate:
print report bad tab
1 2 3 4 5
I want to post or [tab]
guest
You may want to rate the tab now too:
select rating
Please do not post tabs as comments. Select "correction" instead!