Oops, an error
Loading. Please wait.

All Systems Fail Bass Tab

175 views 1 this week
no commentswrite comment
1 2 3 4 5
please rate
add to favorites
launch autoscroll
font size
0
reset
guitar tuner
Tab Pro tools
  • play this tab
  • loop segment
  • change instrument
  • show fretboard
  • metronome
Autoscroll
slow
fast
+/-
esc
set tempo
stop
Contributor
Difficulty
intermediate
-------------------------------------------------------------------------------
			     All Systems Fail - The Suicide Machines
-------------------------------------------------------------------------------

Tabbed By : explsnofsound
e-mail: squashbucket70@yahoo.com

Tuning: Standard EADG

Intro             (x3)         (x1)
G|---------------------|-----------------------------------------------------|
D|---------------------|-----------------------------------------------------|
A|---------------------|-----------------------------------------------------|
E|--3333-4444-55555555-|--3333-4444-5----------------------------------------|

Verse 1  x4
G|---------------------------------------------------------------------------|
D|---------------------------------------------------------------------------|
A|---------------------------------------------------------------------------|
E|--3333-4444-55555555-------------------------------------------------------|

Chorus 1
G|---------------------------------------------------------------------------|
D|-----------------------------------3---------------------------------------|
A|--------------------------------/5-----------------------------------------|
E|--333333333333-3-1--333333333333------333333333333-3-1--333333333333-3-1---|

Verse 2 is exactly the same as Verse 1

Chorus 2
G|---------------------------------------------------------------------------|
D|-------------5-3--555555555555--5-3---------------------------------5-3----|
A|---------------------------------------------------------------------------|
E|333333333333------------------------333333333333-3-1--333333333333---------|

Bridge (Make sure to play each group of notes FAST)
                         (x2)          (x2)
G|----------------------------6-|----------------------------7---------------|
D|------------------------------|--3333-3333-3333---3333-3333----------------|
A|--5555-5555-5555---5555-5555--|--------------------------------------------|
E|------------------------------|--------------------------------------------|

Bridge Continued          (x2)
G|-----------------------------6-|-------------------------------------------|
D|-------------------------------|-------------------------------------------|
A|--5555-5555-5555---5555-5555---|-------------------------------------------|
E|-------------------------------|-------------------------------------------|

Chorus 3
G|---------------------------------------------------------------------------|
D|------------------------------/5-3-555555555555-/5-3-55555555543-----------|
A|----------------------------------------------------------------5430~------|
E|333333333333-3-1--333333333333---------------------------------------------|

Outro             (x3)         (x1)
G|----------------------|----------------------------------------------------|
D|----------------------|----------------------------------------------------|
A|----------------------|----------------------------------------------------|
E|--5555-4444-3333-2222-|--5555-4444-3333-22x-1~-----------------------------|


| /  slide up
| \  slide down
| h  hammer-on
| p  pull-off
| ~  vibrato
| +  harmonic
| x  Mute note
===============================================================================
comments
We did not receive enough feedback on this tab! Please rate:
print report bad tab
1 2 3 4 5
I want to post or [tab]
guest
You may want to rate the tab now too:
select rating
Please do not post tabs as comments. Select "correction" instead!