Oops, an error
Loading. Please wait.

Bender Tab

217 views 1 this week
no commentswrite comment
1 2 3 4 5
please rate
add to favorites
launch autoscroll
font size
0
reset
how to read this tab
guitar tuner
Tab Pro tools
  • play this tab
  • loop segment
  • change instrument
  • show fretboard
  • metronome
×
Best way to learn
"Bender"
Autoscroll
slow
fast
+/-
esc
set tempo
stop
Contributor
Stray Bullets - Bender
sfc

VERSE
E-5-5-5-5-|-7-7-7-7-|-3-3-3-3-|-5-5-5-5-|
B-5-5-5-5-|-9-9-9-9-|-3-3-3-3-|-7-7-7-7-|
G-6-6-6-6-|-9-9-9-9-|-4-4-4-4-|-7-7-7-7-|
D-7-7-7-7-|-9-9-9-9-|-5-5-5-5-|-7-7-7-7-| 
A-7-7-7-7-|-7-7-7-7-|-5-5-5-5-|-5-5-5-5-|
E---------|---------|---------|---------|

E-5-5-5-5-|-7-7-7-7-|-3-3-3-3-|-5-5-5-5-|
B-5-5-5-5-|-9-9-9-9-|-3-3-3-3-|-7-7-7-7-|
G-6-6-6-6-|-9-9-9-9-|-4-4-4-4-|-7-7-7-7-|
D-7-7-7-7-|-9-9-9-9-|-5-5-5-5-|-7-7-7-7-| 
A-7-7-7-7-|-7-7-7-7-|-5-5-5-5-|-5-5-5-5-|
E---------|---------|---------|---------|

E-5-5-5-5-|-7-------|-3-3-3-3-|-5-5-5-5-|
B-5-5-5-5-|-9-------|-3-3-3-3-|-7-7-7-7-|
G-6-6-6-6-|-9-------|-4-4-4-4-|-7-7-7-7-|
D-7-7-7-7-|-9-------|-5-5-5-5-|-7-7-7-7-| 
A-7-7-7-7-|-7-------|-5-5-5-5-|-5-5-5-5-|
E---------|---------|---------|---------|

E-5-5-5-5-|-7-7-7-7-|---------|---------|
B-5-5-5-5-|-9-9-9-9-|---------|---------|
G-6-6-6-6-|-9-9-9-9-|---------|-7~------|
D-7-7-7-7-|-9-9-9-9-|-5~------|-7~------| 
A-7-7-7-7-|-7-7-7-7-|-5~------|-5~------|
E---------|---------|-3~------|---------|

CHORUS
E---------|---------|---------|---------|
B---------|---------|---------|---------|
G-5-5-5-5-|-7-7-7-7-|---------|---------|
D-5-5-5-5-|-7-7-7-7-|-7-7-7-7-|-7-7-7-7-| X4
A-3-3-3-3-|-5-5-5-5-|-7-7-7-7-|-7-7-7-7-|
E---------|---------|-5-5-5-5-|-5-5-5-5-|


SOLO
E---------------------------------------------------|
B-10-----10-9-7----9-------8~-7-8-7-----------------|
G----9----------9----9---9-----------7~---7-7-7-7h9-|
D----------------------9----------------------------|
A---------------------------------------------------|
E---------------------------------------------------|

E-------------------------------|
B-10-----10/12-9-------7-12-10~-|
G----9~----------9-7-9----------|
D-------------------------------|
A-------------------------------|
E-------------------------------|


END
E---------|---------|
B---------|---------|
G-5~--7~--|---------|
D-5~--7~--|-7~------|
A-3~--5~--|-7~------|
E---------|-5~------|

VERSE
CHORUS
VERSE
CHORUS
SOLO
VERSE
CHORUS
END
comments
We did not receive enough feedback on this tab! Please rate:
print report bad tab
1 2 3 4 5
I want to post or [tab]
guest
You may want to rate the tab now too:
select rating
Please do not post tabs as comments. Select "correction" instead!