Oops, an error
Loading. Please wait.

Bleeding Heart Bass Tab

154 views 1 this week
no commentswrite comment
1 2 3 4 5
please rate
add to favorites
launch autoscroll
font size
0
reset
guitar tuner
Tab Pro tools
  • play this tab
  • loop segment
  • change instrument
  • show fretboard
  • metronome
×
Best way to learn
"Bleeding Heart"
Autoscroll
slow
fast
+/-
esc
set tempo
stop
Contributor
Difficulty
advanced
The Suicide Machines
Bleeding Heart
Standard Tuning

This song is pretty straightforward, but many parts are played very fast which makes it 
good challenge.  As always, comments, suggestions, constructive criticism are welcome.  
and enjoy! :)

Intro – 0:05 – (1x)
G|----------------|
D|------------9---|
A|----------9-----|
E|--7-----7-------|

Pre-verse – 0:11 – (1x)
G|------------------------------------------|
D|-------------------------7----------------|
A|-----5-----7------5----7--------5---------|
E|--77---755---5-77---75-----5-77---75557---|

Verse – 0:16 – (1x)
G|-------------------------------------------------------------|
D|-------------------------------------------------------------|
A|-------------------------------------------------------------|
E|--777-555-777-555-777-555-777-555-777-555-777-555-777-5557---|

G|-----------------------------------------------------------|
D|-----------------------------------------------------------|
A|-----------------------------------------------------------|
E|--7-55-77-55-55-7-55-77-5555-7-55-77-55-55-7-55-77-77777---|

Chorus – 0:39 – (1x)
G|------------------------------------|
D|--22-222-4-44-444-55-555-7-77-777---|
A|------------------------------------|
E|------------------------------------|

G|--------------------------------------|
D|--------------------------------------|
A|--------------------------------------|
E|--000000002222222233333333-75757575---|

Pre-verse – 0:51 – (1x)
Verse – 0:56 – (1x)
Chorus – 1:19 – (1x)

Bridge – 1:30 – (1x)
G|---------------------------------------|
D|---------------------------------------|
A|---------7-77/8-------------7-77/8-----|
E|--7-55-5--------7-7--7-55-5--------7---|

G------------------------------------|
D------------------------------------|
A---------77----------------7-7------|
E-77--55------77--7-7--5-5-------7---|

G|--------------------------------|
D|--------------------------------|
A|----------------7-7-77----------|
E|--7-7-77-5-5-55--------7-7-77---|

G|-------------------------------------|
D|-------------------------------7h9---|
A|----------------7-7-77-----7h9-------|
E|--7-7-77-5-5-55--------7-7-----------|

G|------9h11/1414-1414-14-13-13-1313/161413-11-1111-11109-99-98-|
D|--9-9---------------------------------------------------------|
A|--------------------------------------------------------------|
E|--------------------------------------------------------------|

G|----------------|
D|-9-99-----------|
A|------2---------|
E|--------2-3-5---|

Pre-verse – 2:09 - (1x)
Verse – 2:15 – (1x)
Chorus – 2:26 - (2x)

Outro – 2:59 – (1x)
G--------------------------------------|
D--------------------------------------|
A--------7-77/8-------------7-77/8-----|
E-7-55-5--------7-7--7-55-5--------7---|
comments
We did not receive enough feedback on this tab! Please rate:
print report bad tab
1 2 3 4 5
I want to post or [tab]
guest
You may want to rate the tab now too:
select rating
Please do not post tabs as comments. Select "correction" instead!