Oops, an error
Loading. Please wait.

Hey Tab

version 1
version 1

Whole song

Interactive

2,663 views 3 this week
2 commentsread comments
1 2 3 4 5
worth learning
x 3
add to favorites
launch autoscroll
font size
0
reset
how to read this tab
guitar tuner
Tab Pro tools
  • play this tab
  • loop segment
  • change instrument
  • show fretboard
  • metronome
×
Best way to learn
"Hey"
Autoscroll
slow
fast
+/-
esc
set tempo
stop
Contributor
-------------------------------------------------------------------------------
                             Hey Ska - Suicide Machines
-------------------------------------------------------------------------------
Tabbed by:The Fisherman
Email:imsoproudofit_iputmynameonit@hotmail.com
 
Love this song and couldn't find a decent tab for it so tried to figure it out myself.
Not exact i know, but sounds fairly good to me. Haven't figure out the strumming in the
verse yet, but i'll try figure it out soon and update it(Let me know if ya have any idea,
please!!, or any corrections to whats here). 

My slide up key doesnt work, so i used a > instead :-)

Tuning:Standard

Intro  x12
e|---------------------------------------------------------------------------|
B|---------------------------------------------------------------------------|
G|---------4>5\4-------------------------------------------------------------|
D|---2-2---4>5\4--5-4--------------------------------------------------------|
A|---2-2---2>3\2--5-4--------------------------------------------------------|
E|---0-0----------3-2--------------------------------------------------------|


e|---------------------------------------------------------------------------|
B|---------------------------------------------------------------------------|
G|---------------------------------------------------------------------------|
D|------------4-7-5------------4-7-5-----------------------------------------|
A|----4-7-5-4----------4-7-5-4-----------------------------------------------|
E|--5----------------5-------------------------------------------------------|
comments
We did not receive enough feedback on this tab! Please rate:
print report bad tab
1 2 3 4 5
2 comments total.
+1 reply
matt dale wrote on March 4 2007, 02:37 am

you didnt have the ska part and the intro was a little off

0 reply
Garb15 wrote on October 13 2015, 03:39 pm

I believe the ska part plays with the chords A D and E, but I'm not 100%
Also this sounds better to me than what's posted above
e|----------------------
B|----------------------
G|----------------------
D|----------------4----6
A|---4-7--5-4--5----7---
E|5---------------------

I want to post or [tab]
guest
You may want to rate the tab now too:
select rating
Please do not post tabs as comments. Select "correction" instead!