Oops, an error
Loading. Please wait.

Hey Bass Tab

version 2
version 2

Whole song

Interactive

2,040 views 1 this week
no commentswrite comment
1 2 3 4 5
please rate
add to favorites
launch autoscroll
font size
0
reset
guitar tuner
Tab Pro tools
  • play this tab
  • loop segment
  • change instrument
  • show fretboard
  • metronome
×
Best way to learn
"Hey"
Autoscroll
slow
fast
+/-
esc
set tempo
stop
Contributor
Difficulty
intermediate
-------------------------------------------------------------------------------
			     Hey ska - Suicide Machines
-------------------------------------------------------------------------------

Tabbed By | Tony
e-mail| im_fig@hotmail.com

Tuning: EADG


Intro|
G|------------------|
D|------------------|
A|------2h3-2-------|
E|0--0---------3--2-|        (x11)


G|-------------------------------|
D|----------------4----6---------|
A|---4-7--5-4--5----7------------|
E|5---------------------    (x10-|


G|---------------------------------------------------|
D|----------------4-7--6-4-----6-9--7-6--7--6--4-----|
A|---4-7--5-4--5------------7---------------------7--|
E|5--------------------------------------------------|  (x2)


G|--------------------------|
D|----------------4----6----|
A|---4-7--5-4--5----7-------|
E|5-------------------------|    (x4)


G|----------------------------------------------------|
D|---4-7--6-4-----4-7--6-4----------------------------|
A|5------------5---------------4-7--5-4-----4-7--5-4--|
E|--------------------------5------------5------------|

G|----------------------------------------|
D|---4-7--6-4-----4-7--6-4----------------|
A|5------------5------------7--7--7-7-7-7-|
E|----------------------------------------|      (x1)

G|---------------------------------------------------|
D|----------------4-7--6-4-----6-9--7-6--7--6--4-----|
A|---4-7--5-4--5------------7---------------------7--|
E|5--------------------------------------------------|  (x2)

G|--------------------------|
D|----------------4----6----|
A|---4-7--5-4--5----7-------|
E|5-------------------------|    (x4)

G|----------------------------------------------------|
D|---4-7--6-4-----4-7--6-4----------------------------|
A|5------------5---------------4-7--5-4-----4-7--5-4--|
E|--------------------------5------------5------------|

G|----------------------------------------|
D|---4-7--6-4-----4-7--6-4----------------|
A|5------------5------------7--7--7-7-7-7-|
E|----------------------------------------|

Reggae Part|
G|-----------------------           |-----------------|
D|-----------------------           |-----------------|
A|-----------5555-4--2---           |---7--7--7-7-7-7-|
E|5~/--------------------  (x6)     |-----------------|

G|-----------------------|
D|----------------4----6-|
A|---4-7--5-4--5----7----|
E|5----------------------|   ( x8)


| /  slide up
| \  slide down
| h  hammer-on
| p  pull-off
| ~  vibrato
| +  harmonic
| x  Mute note
===============================================================================
comments
We did not receive enough feedback on this tab! Please rate:
print report bad tab
1 2 3 4 5
I want to post or [tab]
guest
You may want to rate the tab now too:
select rating
Please do not post tabs as comments. Select "correction" instead!