Oops, an error
Loading. Please wait.

Hey Tab

version 3
version 3

Whole song

Interactive

1,542 views 15 this week
no commentswrite comment
1 2 3 4 5
excellent!
x 4
add to favorites
launch autoscroll
font size
0
reset
how to read this tab
guitar tuner
Tab Pro tools
  • play this tab
  • loop segment
  • change instrument
  • show fretboard
  • metronome
Autoscroll
slow
fast
+/-
esc
set tempo
stop
Contributor
Difficulty
intermediate
-------------------------------------------------------------------------------
                             HEY - The Suicide Machines
-------------------------------------------------------------------------------
Tabbed by: happypacman
Email: messageme123@hotmail.ca

Couldn't find any tabs so I made one myself.The amount of times a certain part is 
repeated is not listed, so you'll have to do that yourself! You can e-mail me with any 
corrections you may have. Enjoy!

Tuning: Standard

INTRO

e|-----------------|-----------------|
B|-----------------|-----------------|
G|------4/5\4------|------4/5\4------|
D|-2-2--4/5\4-5--4-|-2-2--4/5\4-5--4-|
A|-2-2--2/3\2-5--4-|-2-2--2/3\2-5--4-|
E|-0-0--------3--2-|-0-0--------3--2-|

Here's the part where it gets faster

e|----------------------|----------------------|
B|----------------------|----------------------|
G|----------------------|----------------------|
D|----------------4---6-|----------------4---6-|
A|----4-7--5-4--5---7---|----4-7--5-4--5---7---|
E|-5--------------------|-5--------------------|

"Hey!" Part

e|-----------------|-----------------|-----------------|-----------------|
B|-X-5-X-5-X-5-X-5-|-X-5-X-5-X-5-X-5-|-X-5-X-5-X-5-X-5-|-X-5-X-5-X-5-X-5-|
G|-X-6-X-6-X-6-X-6-|-X-6-X-6-X-6-X-6-|-X-6-X-6-X-6-X-6-|-X-6-X-6-X-6-X-6-|
D|-X-7-X-7-X-7-X-7-|-X-7-X-7-X-7-X-7-|-X-7-X-7-X-7-X-7-|-X-7-X-7-X-7-X-7-|
A|-----------------|-----------------|-----------------|-----------------|
E|-----------------|-----------------|-----------------|-----------------|

Trumpet Solo Thing

e|-----------------|-----------------|-----------------|-----------------|
B|-X-5-X-5-X-5-X-5-|-X-7-X-7-X-7-X-7-|-X-5-X-5-X-5-X-5-|-X-9-X-9-X-9-X-9-|
G|-X-6-X-6-X-6-X-6-|-X-7-X-7-X-7-X-7-|-X-6-X-6-X-6-X-6-|-X-9-X-9-X-9-X-9-|
D|-X-7-X-7-X-7-X-7-|-X-7-X-7-X-7-X-7-|-X-7-X-7-X-7-X-7-|-X-9-X-9-X-9-X-9-|
A|-----------------|-----------------|-----------------|-----------------|
E|-----------------|-----------------|-----------------|-----------------|

And the Verse

e|-----------------|-----------------|-----------------|-----------------|
B|-X-5-X-5-X-5-X-5-|-X-7-X-7-X-9-X-9-|-X-5-X-5-X-5-X-5-|-X-7-X-7-X-9-X-9-|
G|-X-6-X-6-X-6-X-6-|-X-7-X-7-X-9-X-9-|-X-6-X-6-X-6-X-6-|-X-7-X-7-X-9-X-9-|
D|-X-7-X-7-X-7-X-7-|-X-7-X-7-X-9-X-9-|-X-7-X-7-X-7-X-7-|-X-7-X-7-X-9-X-9-|
A|-----------------|-----------------|-----------------|-----------------|
E|-----------------|-----------------|-----------------|-----------------|

Do that a couple times and then it turns into this

e|-----------------|-----------------|-----------------------------------|
B|-X-7-X-7-X-7-X-7-|-X-7-X-7-X-7-X-7-|-X-5-X-5-X-5-X-5-|-X-5-X-5-X-5-X-5-|
G|-X-7-X-7-X-7-X-7-|-X-7-X-7-X-7-X-7-|-X-6-X-6-X-6-X-6-|-X-6-X-6-X-6-X-6-|
D|-X-7-X-7-X-7-X-7-|-X-7-X-7-X-7-X-7-|-X-7-X-7-X-7-X-7-|-X-7-X-7-X-7-X-7-|
A|-----------------|-----------------|-----------------------------------|
E|-----------------|-----------------|-----------------------------------|

e|-----------------|-----------------|-----------------|
B|-X-7-X-7-X-7-X-7-|-X-7-X-7-X-7-X-7-|-9-X-9-X-9-9-9-9-|
G|-X-7-X-7-X-7-X-7-|-X-7-X-7-X-7-X-7-|-9-X-9-X-9-9-9-9-|
D|-X-7-X-7-X-7-X-7-|-X-7-X-7-X-7-X-7-|-9-X-9-X-9-9-9-9-|
A|-----------------|-----------------|-----------------|
E|-----------------|-----------------|-----------------|

And then back to the Trumpet Solo Thing

e|-----------------|-----------------|-----------------|-----------------|
B|-X-5-X-5-X-5-X-5-|-X-7-X-7-X-7-X-7-|-X-5-X-5-X-5-X-5-|-X-9-X-9-X-9-X-9-|
G|-X-6-X-6-X-6-X-6-|-X-7-X-7-X-7-X-7-|-X-6-X-6-X-6-X-6-|-X-9-X-9-X-9-X-9-|
D|-X-7-X-7-X-7-X-7-|-X-7-X-7-X-7-X-7-|-X-7-X-7-X-7-X-7-|-X-9-X-9-X-9-X-9-|
A|-----------------|-----------------|-----------------|-----------------|
E|-----------------|-----------------|-----------------|-----------------|

Then to the Verse

e|-----------------|-----------------|-----------------|-----------------|
B|-X-5-X-5-X-5-X-5-|-X-7-X-7-X-9-X-9-|-X-5-X-5-X-5-X-5-|-X-7-X-7-X-9-X-9-|
G|-X-6-X-6-X-6-X-6-|-X-7-X-7-X-9-X-9-|-X-6-X-6-X-6-X-6-|-X-7-X-7-X-9-X-9-|
D|-X-7-X-7-X-7-X-7-|-X-7-X-7-X-9-X-9-|-X-7-X-7-X-7-X-7-|-X-7-X-7-X-9-X-9-|
A|-----------------|-----------------|-----------------|-----------------|
E|-----------------|-----------------|-----------------|-----------------|

And then this part again

e|-----------------|-----------------|-----------------------------------|
B|-X-7-X-7-X-7-X-7-|-X-7-X-7-X-7-X-7-|-X-5-X-5-X-5-X-5-|-X-5-X-5-X-5-X-5-|
G|-X-7-X-7-X-7-X-7-|-X-7-X-7-X-7-X-7-|-X-6-X-6-X-6-X-6-|-X-6-X-6-X-6-X-6-|
D|-X-7-X-7-X-7-X-7-|-X-7-X-7-X-7-X-7-|-X-7-X-7-X-7-X-7-|-X-7-X-7-X-7-X-7-|
A|-----------------|-----------------|-----------------------------------|
E|-----------------|-----------------|-----------------------------------|

e|-----------------|-----------------|-----------------|
B|-X-7-X-7-X-7-X-7-|-X-7-X-7-X-7-X-7-|-9-X-9-X-9-9-9-9-|
G|-X-7-X-7-X-7-X-7-|-X-7-X-7-X-7-X-7-|-9-X-9-X-9-9-9-9-|
D|-X-7-X-7-X-7-X-7-|-X-7-X-7-X-7-X-7-|-9-X-9-X-9-9-9-9-|
A|-----------------|-----------------|-----------------|
E|-----------------|-----------------|-----------------|

Then comes the Reggae part

e|--------------------|--------------------|
B|-X-X--5-5--X-X--5-5-|-X-X--7-7--X-X--7-7-|
G|-X-X--6-6--X-X--6-6-|-X-X--7-7--X-X--7-7-|
D|-X-X--7-7--X-X--7-7-|-X-X--7-7--X-X--7-7-|
A|--------------------|--------------------|
E|--------------------|--------------------|

And after however many times of doing that it goes

e|-----------------|
B|-9-X-9-X-9-9-9-9-|
G|-9-X-9-X-9-9-9-9-|
D|-9-X-9-X-9-9-9-9-|
A|-----------------|
E|-----------------|

Then back to everybody's favorite part

e|----------------------|----------------------|
B|----------------------|----------------------|
G|----------------------|----------------------|
D|----------------4---6-|----------------4---6-|
A|----4-7--5-4--5---7---|----4-7--5-4--5---7---|
E|-5--------------------|-5--------------------|

And to end it off, the "Hey!" part one last time

e|-----------------|-----------------|-----------------|-----------------|
B|-X-5-X-5-X-5-X-5-|-X-5-X-5-X-5-X-5-|-X-5-X-5-X-5-X-5-|-X-5-X-5-X-5-X-5-|
G|-X-6-X-6-X-6-X-6-|-X-6-X-6-X-6-X-6-|-X-6-X-6-X-6-X-6-|-X-6-X-6-X-6-X-6-|
D|-X-7-X-7-X-7-X-7-|-X-7-X-7-X-7-X-7-|-X-7-X-7-X-7-X-7-|-X-7-X-7-X-7-X-7-|
A|-----------------|-----------------|-----------------|-----------------|
E|-----------------|-----------------|-----------------|-----------------|


************************************

| /   slide up
| \   slide down

************************************
comments
print report bad tab
I want to post or [tab]
guest
You may want to rate the tab now too:
select rating
Please do not post tabs as comments. Select "correction" instead!