Oops, an error
Loading. Please wait.

High Anxiety Bass Tab

version 1
version 1

Whole song

Interactive

2,273 views 3 this week
1 commentread comment
1 2 3 4 5
please rate
add to favorites
launch autoscroll
font size
0
reset
guitar tuner
Tab Pro tools
  • play this tab
  • loop segment
  • change instrument
  • show fretboard
  • metronome
×
Best way to learn
"High Anxiety"
Autoscroll
slow
fast
+/-
esc
set tempo
stop
Contributor
High Anxiety
Suicide Machines

Intro
G|--------------------|
D|--------------------|
A|--------------7--5--|
E|-----------5--------|

Chorus 1
G|-----------------x2-|------------------|
D|--------------------|------------------|
A|--------------------|----------55-5-44-|
E|-55-55-5-33-3-00-33-|-55-5-5-5---------|

G|--------------------|------------------|
D|--------------------|------------------|
A|-555-55-5--777-77-7-|-55-5-5-5---777-7-|
E|--------------------|----------5-------|

Verse 1
G|---------------------------------------------------------------------|
D|-5h7------------------555-----------------------------4h5p4h5-754----|
A|----5----5-544-4---------555-5---------55-5-44-4------------------75-|
E|-----5--5-------5-555---------55-555--5---------5-555----------------|

Chorus 2
G|-----------------x2-|------------------|
D|--------------------|------------------|
A|--------------------|----------55-5-44-|
E|-55-55-5-33-3-00-33-|-55-5-5-5---------|

G|-------------------|------------------|
D|---445577---667799-|------------------|
A|-55-------77-------|-55-5-5-5---777-7-|
E|-------------------|----------5-------|

Verse 2 
G|---------------------------------------------------------------------|
D|-9p7------------------555-----------------------------4h5p4h5-754----|
A|----9----5-544-4---------555-5---------55-5-44-4------------------75-|
E|-----5--5-------5-555---------55-555--5---------5-555----------------|

Chorus 3 (Repeat Chorus 1)

Bridge
G|----------------|-------------------|-------------------------|--------------|
D|------5h7p5-----|----5h7-5/10-7-5-7-|------5h7p5----7h9p7-----|-5h7p5--------|
A|----------------|-5~----------------|-------------------------|------5-7p5---|
E|-5~-7------5-7--|-------------------|-5~-7------5-7------7-10-|-----------75-|

G|----------------|-----------------------|-8h9h11-9----------|--------------|
D|------5h7p5-----|----5h7-5/10-7-5h7-9h7-|----------11p9-7-9-|-7~~~~~~~~~---|
A|----------------|-5~--------------------|-------------------|------------7-|
E|-5~-7------5-7--|-----------------------|-------------------|--------------|

Guitar Solo 
G|----------x3-|---------------|------------------|
D|-------------|---------------|------------------|
A|--------55-4-|-5--------7----|-55-5-5-5---777-7-|
E|-55-555------|----0--------0-|----------5-------|

Verse 3 
G|----------------------------------------------------------------------|
D|-----------------------555-----------------------------4h5p4h5-754----|
A|----------5-544-4---------555-5---------55-5-44-4------------------75-|
E|-55-0-5--5-------5-555---------55-555--5---------5-555----------------|

Chorus 4 (Repeat Chorus 1) Then... 
G|-----------------x2-|------------------|
D|--------------------|------------------|
A|--------------------|----------55-5-44-|
E|-55-55-5-33-3-00-33-|-55-5-5-5---------|

G|-------------------|------------------|
D|---445577---667799-|------------------|
A|-55-------77-------|-55-5-5-5---7-7---|
E|-------------------|----------5-----5-|

Add my Myspace:
Myspace.com/Jake_bums_sheep_x
I'll add you fer shure and we can bum over the interweb lolz
comments
We did not receive enough feedback on this tab! Please rate:
print report bad tab
1 2 3 4 5
1 comment total.
0 reply
RaiLeff wrote on February 23 2007, 12:08 pm

Great tab man ! really helped

I want to post or [tab]
guest
You may want to rate the tab now too:
select rating
Please do not post tabs as comments. Select "correction" instead!