Oops, an error
Loading. Please wait.

High Anxiety Tab

version 1
version 1

Whole song

Interactive

4,486 views 3 this week
2 commentsread comments
1 2 3 4 5
accurate
x 4
add to favorites
launch autoscroll
font size
0
reset
how to read this tab
guitar tuner
Tab Pro tools
  • play this tab
  • loop segment
  • change instrument
  • show fretboard
  • metronome
×
Best way to learn
"High Anxiety"
Autoscroll
slow
fast
+/-
esc
set tempo
stop
Suicide Machines
High Anxiety
(Ska synctopation [up strokes] throughout)


INTRO

    Well...it's...the...
E---5------7------5-
B---5------9------7-
G---6------9------7-
D---7------9------7-
A---7------7------5-
E---5---------------


CHORUS

E-5-5-5-5-¦-5-5-5-5-¦-5-5-5-5-¦-5-5-5-5-¦
B-5-5-5-5-¦-7-7-7-7-¦-5-5-5-5-¦-7-7-7-7-¦
G-6-6-6-6-¦-7-7-7-7-¦-6-6-6-6-¦-7-7-7-7-¦
D-7-7-7-7-¦-7-7-7-7-¦-7-7-7-7-¦-7-7-7-7-¦
A-7-7-7-7-¦-7-7-7-7-¦-7-7-7-7-¦-5-5-7-7-¦
E-5-5-5-5-¦---------¦-5-5-5-5-¦---------¦


E-5-5-5-5-¦-5-5-4-4-¦-5-5-5-5-¦-5-5-5-5-¦
B-5-5-5-5-¦-7-7-5-5-¦-5-5-5-5-¦-7-7-7-7-¦
G-6-6-6-6-¦-7-7-6-6-¦-6-6-6-6-¦-7-7-7-7-¦
D-7-7-7-7-¦-7-7-6-6-¦-7-7-7-7-¦-7-7-7-7-¦
A-7-7-7-7-¦-5-5-4-4-¦-7-7-7-7-¦-5-5-5-5-¦
E-5-5-5-5-¦---------¦-5-5-5-5-¦---------¦


E-5-5-5-5-¦-5-5-7-7-¦
B-5-5-5-5-¦-5-5-9-9-¦ 
G-6-6-6-6-¦-6-6-9-9-¦
D-7-7-7-7-¦-7-7-9-9-¦
A-7-7-7-7-¦-7-7-7-7-¦
E-5-5-5-5-¦-5-5-----¦                            x1



VERSE

E-5-5-5-5-¦-5-5-5-5-¦
B-5-5-5-5-¦-7-7-7-7-¦
G-6-6-6-6-¦-7-7-7-7-¦
D-7-7-7-7-¦-7-7-7-7-¦
A-7-7-7-7-¦-7-7-7-7-¦
E-5-5-5-5-¦---------¦                            x4



INTERLUDE

E---5---5-¦---2---2-¦---5---5-¦---7---7-¦
B---5---5-¦---3---3-¦---7---7-¦---9---9-¦
G---6---6-¦---4---4-¦---7---7-¦---9---9-¦
D---7---7-¦---4---4-¦---7---7-¦---9---9-¦
A---7---7-¦---2---2-¦---5---7-¦---7---7-¦
E---5---5-¦---------¦---------¦---------¦        x3

E---5---5-¦---2---2-¦---5---5-¦---------¦
B---5---5-¦---3---3-¦---7---7-¦---------¦
G---6---6-¦---4---4-¦---7---7-¦---------¦
D---7---7-¦---4---4-¦---7---7-¦---------¦
A---7---7-¦---2---2-¦---5---5-¦---------¦        x1 
E---5---5-¦---------¦---------¦---------¦


SOLO

E-5-5-5-5-¦-5-5-5-5-¦
B-5-5-5-5-¦-7-7-7-7-¦
G-6-6-6-6-¦-7-7-7-7-¦
D-7-7-7-7-¦-7-7-7-7-¦
A-7-7-7-7-¦-7-7-7-7-¦
E-5-5-5-5-¦---------¦  (same as verse)           x5


END ON

E-5-
B-5-
G-6-
D-7-
A-7-
E-5-
comments
print report bad tab
2 comments total.
0 reply
FunkyC*FunkyDu* wrote on December 16 2005, 04:51 pm

good but wheres the solo! thats the best part!

0 reply
NNoodleNose wrote on April 20 2007, 04:26 pm

the solo goes something like:

e|---------------------------------------------------------|
b|---------------------------------------------------------|
g|-7-7-7-7-6---------6-------7-6---------6-------7-6-------|
d|-----------9-7-9-7---9-7-9-----9-7-9-7---7-9-7-----9-7-9-|
a|---------------------------------------------------------|
E|---------------------------------------------------------|

e|---------------------------------------------------------|
b|-------------------------------------------7-------------|
g|-7-7-7-7-7-6-6-6-6-------------6--------6----9-7-9-7-6-9-|
d|-----------------------7---7\9------7-9------------------|
a|-------------------7\9------------9----------------------|
E|---------------------------------------------------------|

I want to post or [tab]
guest
You may want to rate the tab now too:
select rating
Please do not post tabs as comments. Select "correction" instead!