Oops, an error
Loading. Please wait.

Kaleidoscope Bass Tab

192 views 3 this week
no commentswrite comment
1 2 3 4 5
please rate
add to favorites
launch autoscroll
font size
0
reset
guitar tuner
Tab Pro tools
  • play this tab
  • loop segment
  • change instrument
  • show fretboard
  • metronome
×
Best way to learn
"Kaleidoscope"
Autoscroll
slow
fast
+/-
esc
set tempo
stop
-------------------------------------------------------------------------------
                             Kaleidoscope - Suicide Machines
-------------------------------------------------------------------------------
Tabbed by:
E-mail:

Tuning:EADG
The pre-verse sounds off if you play it regular, but if you put your thumb on the finger 
board to play it, it should sound better.

Intro
G|-------------------------------|
D|-------------------------------|
A|-------------------------------|
E|--2222-2-2-2-22-HEY!-----------|

Pre-verse
G|------------------------------|
D|------7---7--6--65------------|
A|--5-8---8---------6-----------|
E|-------------------6-3--------|

Chorus (I guess)
G|-----------------------------------------------|
D|-----------------------8888-------------------o|
A|-------5555-6666-8888------5555-6666-8888-----o|
E|---6666----------------------------------------|

"Didn't I tell you everything about me..."
G|---------------------------------------------------|
D|--------------------------------------------------o|
A|---88-888-8---------66-666-6----------------------o|
E|-----------88-888-8----------66-666----------------|

Pre-verse #2
G|------------------------------------------|
D|-----7---7-----7-6-----6-5---------------o|
A|-5-8---8---8-5-----6-------6-------------o|
E|---------------------8-------6-3----------|

"We change our minds like changes in the weather..."
G|---------------------------------------------------------------------------|
D|---------------------------------------------------------------------------|
A|-6666-----------7777-------------------------------------------------------|
E|------7777-4444------------------------------------------------------------|

"Everything went wrong..."
G|--------------4----h6-4p-----------------------4-6-4-----------------------|
D|---4-7-4-7---------------7---4-7-------4-7-4-7-------7-6-4-----------------|
A|-5-------------------------5---------5---------------------7-5-4-----------|
E|---------------------------------------------------------------------------|

Ending                   Last note
G|---------------------*---------------------------------|
D|---------------------*---------------------------------|
A|-6666-----------7777-*----7----------------------------|
E|------7777-4444------*----0----------------------------|


| /  slide up
| \  slide down
| h  hammer-on
| p  pull-off
| ~  vibrato
| +  harmonic
| x  Mute note
===============================================================================
comments
We did not receive enough feedback on this tab! Please rate:
print report bad tab
1 2 3 4 5
I want to post or [tab]
guest
You may want to rate the tab now too:
select rating
Please do not post tabs as comments. Select "correction" instead!