Oops, an error
Loading. Please wait.

New Girl Bass Tab

version 1
version 1

Whole song

Interactive

4,367 views 3 this week
no commentswrite comment
1 2 3 4 5
excellent!
x 5
add to favorites
launch autoscroll
font size
0
reset
guitar tuner
Tab Pro tools
  • play this tab
  • loop segment
  • change instrument
  • show fretboard
  • metronome
×
Best way to learn
"New Girl"
Autoscroll
slow
fast
+/-
esc
set tempo
stop
Suicide Machines
Bass Tablature for New Girl

Intro and Chorus: (Repeat 3x)
G:--------------------
D:5--3-3--------------
A:---------3---3--3--3
E:--------------------

"Well I can't wait to tell you all about her...": (Repeat 3x)
G:---4-7----2-5---------------
D:5------3---------2-5-3-0-2-3
A:--------------3-------------
E:----------------------------

Verse: (Repeat 3x)
G:---4-7----4-7--------------
D:5------5---------2-5----2-5
A:--------------3------3-----
E:---------------------------

"HEY! HEY! HEY! HEY!": (Repeat once)  1st Ending                     
G:---4-7----4-7--------------*----4-7----4-7--------------*--------------------
D:5------5---------2-5----2-5*-5------5---------4-7----4-7*---4-7---4-7-7-5-4--
A:--------------3------3-----*---------------5------5-----*5------5-----------5
E:---------------------------*----------------------------*--------------------

Ending: (Repeat 3 times, last time cut off last 3 7s)
G:---------------------
D:---------------------
A:-----------7--7--7--7
E:5--5--7-7------------




Figured out and written by Fidget (hoepfner@lcm.macomb.lib.mi.us)



comments
print report bad tab
I want to post or [tab]
guest
You may want to rate the tab now too:
select rating
Please do not post tabs as comments. Select "correction" instead!