Oops, an error
Loading. Please wait.

No Face Bass Tab

version 2
version 2

Whole song

586 views 1 this week
1 commentread comment
1 2 3 4 5
please rate
add to favorites
launch autoscroll
font size
0
reset
guitar tuner
Tab Pro tools
  • play this tab
  • loop segment
  • change instrument
  • show fretboard
  • metronome
×
Best way to learn
"No Face"
Autoscroll
slow
fast
+/-
esc
set tempo
stop
Contributor
-------------------------------------------------------------------------------
			     NO FACE – THE SUICIDE MACHINES 
-------------------------------------------------------------------------------

Tabbed By : Jess Hawk 
e-mail: jessnumber2@hotmail.com (comments, corrections.. I will give you credit!) 

Tuning: Standard (EADG) 

Intro: (starts at 0:04)		
G|---------------------------------------------------------------------------|
D|--5/7----------------------------------------------------------------------|
A|---------------------------------------------------------------------------|
E|---------------------------------------------------------------------------|

At 0:09 [x2]
G|---------------------------------------------------------------------------|
D|---------------------------------------------------------------------------|
A|--10---------7--8-8-8-8-7-----------10-----7----8888--7--------------------|
E|-----8--8-10---------------10--8--------8----------------10---8------------|

At 0:19 (verse) [x2]  
G|---------------------------------------------------------------------------|
D|---------------------------------------------------------------------------|
A|---10--------7-88888-7--------------—--------------------------------------|
E|------8-8-10-----------10 8------------------------------------------------|

At 0:29 [x2] 
G|---------------------------------------------------------------------------|
D|---------9--------7--10--7---------9---------------------------------------|
A|--7--10----10--8------------7--10-----10---8--7------7---------------------|
E|-------------------------------------------------10------------------------|

At 0:38 [x2] 
G|---------------------------------------------------------------------------|
D|---------------------------------------------------------------------------|
A|--10---------7--8-8-8-8-7-----------10-----7----8888--7--------------------|
E|-----8--8-10---------------10--8--------8----------------10---8------------|

At 0:48 (verse) [x4]  
G|---------------------------------------------------------------------------|
D|---------------------------------------------------------------------------|
A|---10--------7-88888-7--------------—--------------------------------------|
E|------8-8-10-----------10 8------------------------------------------------|


At 0:58 [x2] 
G|---------------------------------------------------------------------------|
D|---------9--------7--10--7---------9---------------------------------------|
A|--7--10----10--8------------7--10-----10---8--7------7---------------------|
E|-------------------------------------------------10------------------------|

At 1:07 (Bridge) [x2]
G|---------------------------------------------------------------------------|
D|---------2-0--------------------2-0----------------------------------------|
A|---0--0------3-2-0-3-2--0---0-0-----3-2------------------------------------|
E|---------------------------------------------------------------------------|

At 1:12 
G|---------------------------------------------------------------------------|
D|-----------------------------7---------------------------------------------|
A|--0--0----------0-0---5--5------5------------------------------------------|
E|--------3-0-3--------------------------------------------------------------|

At 1:17 [x2] 
G|---------------------------------------------------------------------------|
D|---------------------------------------------------------------------------|
A|--10---------7--8-8-8-8-7-----------10-----7----8888--7--------------------|
E|-----8--8-10---------------10--8--------8----------------10---8------------|

At 1:27 [x2] 
G|---------------------------------------------------------------------------|
D|---------9--------7--10--7---------9---------------------------------------|
A|--7--10----10--8------------7--10-----10---8--7------7---------------------|
E|-------------------------------------------------10------------------------|

At 1:37 [x4] 
G|---------------------------------------------------------------------------|
D|---------------------------------------------------------------------------|
A|---10--------7-88888-7--------------—--------------------------------------|
E|------8-8-10-----------10 8------------------------------------------------|



| /  slide up
| \  slide down
| h  hammer-on
| p  pull-off
| ~  vibrato
| +  harmonic
| x  Mute note
comments
We did not receive enough feedback on this tab! Please rate:
print report bad tab
1 2 3 4 5
1 comment total.
0 reply
jjm340 wrote on September 18 2014, 10:40 pm

didn't like this contribution

I want to post or [tab]
guest
You may want to rate the tab now too:
select rating
Please do not post tabs as comments. Select "correction" instead!