Oops, an error
Loading. Please wait.

Politics Of Humanity Tab

211 views 1 this week
no commentswrite comment
1 2 3 4 5
please rate
add to favorites
launch autoscroll
font size
0
reset
how to read this tab
guitar tuner
Tab Pro tools
  • play this tab
  • loop segment
  • change instrument
  • show fretboard
  • metronome
Autoscroll
slow
fast
+/-
esc
set tempo
stop
suicide machines
politics of humanity

i think this tab is right but if it isnt and you know the problem
feel free to copy it and make any corrections.

*INTRO*
|------------------------------------
|------------------------------------
|------------------------------------
|10--10--10--10--10--10--10-10-12-12-   2X
|------------------------------------
|------------------------------------

----------------------------------------------------------------------------------------------
----------------------------------------------------------------------------------------------
----------------------------------------------------------------------------------------------
10--10--10--10--10--10--10-10-14-14--14--14--14--14--14-14-10-12--12--12--12--12--12--12--12--
----------------------------------------------------------------------------------------------
----------------------------------------------------------------------------------------------

*riff*
|------------------------------------
|------------------------------------
|------------------------------------
|10--10--10--10--10--10--10-10-12-12-   2X
|8---8---8---8---8---8---8--8--10-10-
|------------------------------------

----------------------------------------------------------------------------------------------|
----------------------------------------------------------------------------------------------|
----------------------------------------------------------------------------------------------|
10--10--10--10--10--10--10-10-14-14--14--14--14--14--14-14-10-12--12--12--12--12--12--12--12--|
8---8---8---8---8---8---8--8--12-12--12--12--12--12--12-12-8--10--10--10--10--10--10--10--10--|
----------------------------------------------------------------------------------------------|

*verse*
|------------------------------------------------------|
|------------------------------------------------------|
|------------------------------------------------------|
|10-10--10--10--10--10--10-10-12-12--12--12--12--12-12-|
|------------------------------------------------------|
|------------------------------------------------------|

*chorus*
|---------|---------|---------|---------|
|---------|---------|---------|---------|
|---------|-6--6--6-|-6--6--6-|---------|
|-6--6--6-|-x--x--x-|-4--4--4-|---------|
|-4--4--4-|-4--4--4-|---------|-6--6--6-|
|---------|---------|---------|-4--4--4-|

*bridge*
|--------------------|---------------------|------------------------------------
|--------------------|---------------------|------------------------------------
|--------------------|---------------------|------------------------------------
|--------------------|-3--3--3--3--3--3--3-|------------------------------------
|3--3--3--3--3--3--3-|---------------------|-5--5--5--5--5--5--5--5--5--5--5--5-
|--------------------| p  p  p  p  p  p  p |------------------------------------
 p  p  p  p  p  p  p                         p  p  p  p  p  p  p

----------------------------------------------------------------------------------
----------------------------------------------------------------------------------
----------------------------------------------------------------------------------
--3--3--3--3--3--3--3--1--1--1--1--1--1--1--5--5--5--5--5--5--5--3--3--3--5--5--5-
--5--5--5--5--5--5--5--3--3--3--3--3--3--3--7--7--7--7--7--7--7--5--5--5--7--7--7-
----------------------------------------------------------------------------------

--------------------|---------------------|------------------------------------
--------------------|---------------------|------------------------------------
--------------------|---------------------|------------------------------------
--------------------|-3--3--3--3--3--3--3-|------------------------------------
5--5--5--5--5--5--5-|---------------------|-3--3--3--3--3--3--3--3--3--3--3--3-
--------------------| p  p  p  p  p  p  p |------------------------------------
 p  p  p  p  p  p  p                        p  p  p  p  p  p  p

*ORDER*
intr______2x
riff______2x
verse_____4x
chorus____4x
verse_____4x
chorus____4x
bridge____1x
riff______2x
chorus____8x
comments
We did not receive enough feedback on this tab! Please rate:
print report bad tab
1 2 3 4 5
I want to post or [tab]
guest
You may want to rate the tab now too:
select rating
Please do not post tabs as comments. Select "correction" instead!