Oops, an error
Loading. Please wait.

Shes Not Worth It Tab

88 views 1 this week
no commentswrite comment
1 2 3 4 5
excellent!
x 1
add to favorites
launch autoscroll
font size
0
reset
how to read this tab
guitar tuner
Tab Pro tools
  • play this tab
  • loop segment
  • change instrument
  • show fretboard
  • metronome
Autoscroll
slow
fast
+/-
esc
set tempo
stop
Contributor
-------------------------------------------------------------------------------
                             She's Not Worth It - Suicide Machines
-------------------------------------------------------------------------------
Tabbed by: The one and only ZiR23
Email:z1r_23@hotmail.com

Tuning:Standard

work out the timing yourself, it's pretty straight forward....

e|---------------------------------------------------------------------------|
B|---------------------------------------------------------------------------|
G|---------------------------------------------------------------------------|
D|-9--------7-7-7------------repeat4x----------------------------------------|
A|-7-x7-----5-5-5------------------------------------------------------------|
E|-0-----0--0-0-0------------------------------------------------------------|
         *                                       * = palm muted

e|---------------------------------------------------------------------------|
B|---------------------------------------------------------------------------|
G|---------------------------------------------------------------------------|
D|----6-9-6-7-6---------7-7-7------------------------------------------------|
A|--7-----------7-------5-5-5------------repeat4x----------------------------|
E|-------------------0--0-0-0------------------------------------------------|
                     *
e|---------------------------------------------------------------------------|
B|---------------------------------------------------------------------------|
G|---------------------------------------------------------------------------|
D|------2-3-5-3-2------------------------------------------------------------|
A|--3-3-----------3----5-5----------repeat4x---------------------------------|
E|---------------------3-3---------------------------------------------------|


Chorus
e|---------------------------------------------------------------------------|
B|---------------------------------------------------------------------------|
G|---------------------------------------------------------------------------|
D|----------------12--9-9h10p9-----------------------------------------------|
A|-10-x-x--12-x-x-10------------12-10-------repeat4x-------------------------|
E|-8--x-x--10-x-x------------------------------------------------------------|

e|---------------------------------------------------------------------------|
B|---------------------------------------------------------------------------|
G|---------------------------------------------------------------------------|
D|-5--5-5------------12------------repeat4x----------------------------------|
A|-3--3-3--5--5-5----10--x8--------------------------------------------------|
E|---------3--3-3------------------------------------------------------------|

 THAT'S IT!! pretty easy huh? the song pretty much repeats so need need to write it all out. 
email me any corrections you think are necessary. 
comments
We did not receive enough feedback on this tab! Please rate:
print report bad tab
1 2 3 4 5
I want to post or [tab]
guest
You may want to rate the tab now too:
select rating
Please do not post tabs as comments. Select "correction" instead!