Oops, an error
Loading. Please wait.

Smile Bass Tab

19 views 1 this week
no commentswrite comment
1 2 3 4 5
3 more votes to show rating
add to favorites
launch autoscroll
font size
0
reset
guitar tuner
Autoscroll
slow
fast
+/-
esc
set tempo
stop
Help us to improve Ultimate-Guitar.com Take our survey!
×
Author
Difficulty
intermediate
About this tab version
This is the first bass tab of this song. Was this info helpful? Yes No
This song is off of the Potshot/The Suicide Machines Split, and is a cover of a Potshot song.

[Intro] X2

G|---------------------------------------------------------------------------------------------|
D|--------------------------------------------4--4-4-4-4-4-4-----------------------------------|
A|-5--5-5-5-5-5-4-5--5-5-5-5-5-4-5--5-5-5-5-5-----------------------------------2-2--3-3--2-2--|
E|-----------------------------------------------------------3--3-3-3-3-3-3--3-----------------|

G|---------------------------------------------------------------------------------------|
D|----------------5/7-7-7-7--------------------------------------------------------------|
A|--------------------------7-7-7-7------------------------------------------------------|
E|-5--5-5-5-5-5-5------------------------------------------------------------------------|


[Verse] X2

G|-----------------------------------------------------------------------------------------------|
D|-----------------------------5----------------4--4-4-4-4-4-4-----------------------------------|
A|-5--5-5-5-5-5-5-5--5-5-5-5-5---5--5-5-5-5-5-5-----------------------------------2-2--3-3--2-2--|
E|-------------------------------------------------------------3--3-3-3-3-3-3--3-----------------|

G|-----------------------------------------------------------------------------------------|
D|----------------5/7-7-7-7-------7--------------------------------------------------------|
A|--------------------------7-7-7----------------------------------------------------------|
E|-5--5-5-5-5-5-5--------------------------------------------------------------------------|


[Chorus]

G|---------------------------------------------------------------------------|
D|---------------------------------------------------------------------------|
A|-------------------------------5--5-5-5-5-5-5------------------------------|
E|-3--3-3-3-3-3-3--5--5-5-5-5-5------------------7--7-7-7-7-7----------------|


G|---------------------------------------------------------------------------|
D|-----------------------------------------------------4-4--5-5--7-7---------|
A|--------------------------------5--5-5-5-5-5-5--5-5------------------------|
E|-3--3-3-3-3-3-3---5--5-5-5-5-5---------------------------------------------|


[Verse2] X2

G|-----------------------------------------------------------------------------------------------|
D|-----------------------------5----------------4--4-4-4-4-4-4-----------------------------------|
A|-5--5-5-5-5-5-5-5--5-5-5-5-5---5--5-5-5-5-5-5-----------------------------------2-2--3-3--2-2--|
E|-------------------------------------------------------------3--3-3-3-3-3-3--3-----------------|

G|-----------------------------------------------------------------------------------------|
D|----------------5/7-7-7-7-------7--------------------------------------------------------|
A|--------------------------7-7-7----------------------------------------------------------|
E|-5--5-5-5-5-5-5--------------------------------------------------------------------------|

[Chorus2]

G|---------------------------------------------------------------------------|
D|---------------------------------------------------------------------------|
A|-------------------------------5--5-5-5-5-5-5------------------------------|
E|-3--3-3-3-3-3-3--5--5-5-5-5-5------------------7--7-7-7-7-7----------------|

G|---------------------------------------------------------------------------|
D|-----------------------------------------------------4-4--5-5--7-7---------|
A|--------------------------------5--5-5-5-5-5-5--5-5------------------------|
E|-3--3-3-3-3-3-3---5--5-5-5-5-5---------------------------------------------|


[Interlude (Hey! Hey! bit)] X2

G|-------------------------------------------------------------------------------------------------------|
D|-------------------------------------------------------------------------------------------------------|
A|--5-5-5-5-5~--4-4-4-4-4~--2-2-2-2-2~--0-0-0-0-0~-----------------------2-2--3-3--2-2-------------------|
E|--------------------------------------------------3--3-3-3-3-3-3--3-3-----------------5--5-5-5-5-5-5---|

G|---------------------|
D|-5/7-7-7-7-----------|
A|-----------7-7-7-7---|
E|---------------------|


[Chorus3]

G|---------------------------------------------------------------------------|
D|---------------------------------------------------------------------------|
A|-------------------------------5--5-5-5-5-5-5------------------------------|
E|-3--3-3-3-3-3-3--5--5-5-5-5-5------------------7--7-7-7-7-7----------------|

G|---------------------------------------------------------------------------|
D|-----------------------------------------------------4-4--5-5--7-7---------|
A|--------------------------------5--5-5-5-5-5-5--5-5------------------------|
E|-3--3-3-3-3-3-3---5--5-5-5-5-5---------------------------------------------|


[Outro pt.1] X2

G|---------------------------------------------------------------------------|
D|---------------------------------------------------------------------------|
A|--5--5-5-5-5-5-5--4--4-4-4-4-4-4--2--2-2-2-2-2-2--0--0-0-0-0-0-0-----------|
E|---------------------------------------------------------------------------|

G|---------------------------------------------------------------------------|
D|---------------------------------------------------------------------------|
A|---------------------------------------------------------------------------|
E|--3--3-3-3-3-3-3--3--3-3-3-3-3-3--5--5-5-5-5-5-5--5--5-5-5-5-5-5-----------|


[Outro pt.2]

G|-----------------------------------------------------------------------------------------------------------|
D|-----------------------------------------------------------------------------------------------------------|
A|-5-5-5-5-5~-4-4-4-4-4~-2-2-2-2-2~-0-0-0-0-0~---------------------------------------------------------------|
E|--------------------------------------------3--3-3-3-3-3-3--3--3-3-3-3-3-3--5--5-5-5-5-5-5--5--5-5-5-5-5-5-|


G|---------------------------------------------------------------------------------------------|
D|--------------------------------------------------------3/5-5-5-5-5-5-5-5--------------------|
A|-5-5-5-5-5~-4-4-4-4-4~-2-2-2-2-2~-0-0-0-0-0~--------2-5--------------------------------------|
E|---------------------------------------------3--3-3-----------------------5--5--5-5-5-5------|

G|------------------------------|
D|-5/7-7--5-5--4-4--------------|
A|------------------7-7--5~-----|
E|------------------------------|


{End}

G|--------------|
D|--4-2---2-----|
A|------5---5\--|
E|--------------|


************************************


| ~   Hold note
| /   Slide up
| \   Slide down


************************************
Suggest correction
Give kudos to tab author, rate the tab!
1 2 3 4 5
comments
print report bad tab
guest
You may want to rate the tab now too:
select rating
Wanna post a correction for this tab? Suggest correction