Oops, an error
Loading. Please wait.

Someone Bass Tab

version 2
version 2

Whole song

190 views 1 this week
no commentswrite comment
1 2 3 4 5
please rate
add to favorites
launch autoscroll
font size
0
reset
guitar tuner
Tab Pro tools
  • play this tab
  • loop segment
  • change instrument
  • show fretboard
  • metronome
Autoscroll
slow
fast
+/-
esc
set tempo
stop
Contributor
Difficulty
advanced
Suicide Machines
Someone
Battle Hymns
Standard Tuning

I don't mean to come over the top of anyone, but when the only other tab for a song is
incomplete and unfortunately, mostly inaccurate, I feel like it is worth having a second
on the site.  As always any comments, constructive criticism, and suggestions are 
 Thanks and enjoy! :)

Intro - 0:06 - (x1)
G|------|
D|------|
A|--3---|
E|------|

Part A - 0:11 - (x2)
G|--------------------------------------------|
D|---------0-------2200-------0----00---------|
A|--333-20------00------33320---11-------00---|
E|-----------11-----------------------11------|

Part B - 0:21 - (x2)
G|----------------------------------------|
D|----------------------------------------|
A|--33333333-00000000-11111111------------|
E|-----------------------------11111111---|

Part C - 0:31 - (x2)
G|-------------------------------------------|
D|-------0-------22-00-------0---------------|
A|--3320------00-------33-20---------00------|
E|---------11------------------11-11----33---|

Part B - 0:40 - (x2)

Part C - 0:50 - (x2)

Part D - 1:00 - (x1)
G|-------------------------------------------------------------------------|
D|---------10-------10-10--------------10-87----------0----------------0---|
A|------10----88-11-------11-11-----10-------87-----1---0-111-11-----1---0-|
E|--888-------------------------888-------------333--------------333-------|

G|-----------|
D|-----------|
A|--111-11---|
E|-----------|

Part B - 1:11 - (x2)

Part E - 1:21 - (x4)
G|-----------------------|
D|--------0-------22-0---|
A|--33-20------00--------|
E|----------11-----------|

Part F - 1:30 - (x2)
G|---------------|
D|--------22-0---|
A|-----00--------|
E|--11-----------|

Ending
G|------|
D|------|
A|--3---|
E|------|
comments
We did not receive enough feedback on this tab! Please rate:
print report bad tab
1 2 3 4 5
I want to post or [tab]
guest
You may want to rate the tab now too:
select rating
Please do not post tabs as comments. Select "correction" instead!