Oops, an error
Loading. Please wait.

Vans Song Bass Tab

963 views 1 this week
no commentswrite comment
1 2 3 4 5
excellent!
x 2
add to favorites
launch autoscroll
font size
0
reset
guitar tuner
Tab Pro tools
  • play this tab
  • loop segment
  • change instrument
  • show fretboard
  • metronome
Autoscroll
slow
fast
+/-
esc
set tempo
stop
Suicide Machines
Bass Tablature for Vans Song

Intro to verses:
G:------------------------------4-5-7
D:0--5-5-5-5-5-5-5-5-5-5-5-5-5------
A:-----------------------------------
E:-----------------------------------

Verse: (Repeat until chorus)
G:--------------------------4-5-7----------------
D:----------------5-5-5-5-5----------------------
A:5-5-5-5-3-3-3-3----------------5-5-5-5-3-3-3-3-
E:-----------------------------------------------

Verse continued:
G:--4-5-7-5-4-------------------------------4-5-7
D:5-----------7-5-----------------5-5-5-5-5------
A:----------------5-5-5-5-3-3-3-3----------------
E:-----------------------------------------------

Verse continued:
G:------------------4-7-4-5-4----
D:----------------5-----------7-5
A:5-5-5-5-3-3-3-3----------------
E:-------------------------------

"To hell" and "No friends": (Repeat 1x)
G:--------------------------------
D:--------------------------------
A:5-5-5-5-3-3-3-3-----------------
E:----------------3-3-3-3-3-3-3-3-

End Verse and song on this note:
E:---3---
Chorus: (Repeat 1x)
G:-----------------------------------------------
D:-----------------------------------------------
A:--------3-3-5-5---------3-3-5-5---------3-3-5-5
E:3-3-3-3---------3-3-3-3---------3-3-3-3--------

Chorus continued:
G:---------
D:---------
A:3-3-3-3-5
E:---------

Small Variation: "why you don't have any friends."
G:--7---10-9-7--
D:9---9--------9
A:--------------
E:--------------

Figured out and written by Fidget (hoepfner@lcm.macomb.lib.mi.us)



comments
We did not receive enough feedback on this tab! Please rate:
print report bad tab
1 2 3 4 5
I want to post or [tab]
guest
You may want to rate the tab now too:
select rating
Please do not post tabs as comments. Select "correction" instead!