Oops, an error
Loading. Please wait.

Your Silence Bass Tab

version 1
version 1

Whole song

Interactive

225 views 1 this week
no commentswrite comment
1 2 3 4 5
please rate
add to favorites
launch autoscroll
font size
0
reset
guitar tuner
Tab Pro tools
  • play this tab
  • loop segment
  • change instrument
  • show fretboard
  • metronome
Autoscroll
slow
fast
+/-
esc
set tempo
stop
Contributor
~=let ring
h=hammer on
p=pull off
.=palm mute
^=bend

Intro I(after drums)
g|-----
d|-----
a|-----
e|-5~--

Intro II (after guitar plays riff a couple of times)
g|--------------------------|
d|-6---5-------5----------5-|
a|---7---5-3-0---5-3--0-3---|
e|--------------------------|

Verse
g|--------|---------|
d|--------|---------|
a|----6555|---65533-|
e|-555----|555------|

Chorus
g|-------------------------------|
d|-------------------------------|
a|-5~-----5~-----5^--5^--6-5-3---| (play only this first time)
e|-----------------------------5-|

play this every other time
g|---------------------------------------|
d|---------------------------------------|
a|-5~-----5~-----5^--5^--6-5-3-----------|
e|-----------------------------5-4-3-1-0-|

BridgeI
g|---------------------|
d|---------------------|
a|------5~--------6~---|
e|-5~--------6~--------|

BridgeII (political rant)
g|----------------------------------|
d|----------------------------------|
a|---------55555555--------66666666-|
e|-55555555--------66666666---------|
   ................................

BridgeIII(what you gonna do?)
g|------------------------------------------------------------------|
d|---------------------8--------7-----------------------8-------7---|
a|----------5-7-5--6-6---6--5-5---5----------6-8-6--6-6---6-5-5---5-|
e|-5-5--5-5--------------------------6-6-6-6------------------------|

BridgeIV(the world is spinning out of control!)
g|----------------------------------|
d|----------------------------------|
a|---------55555555--------66666666-|
e|-55555555--------66666666---------|

and verse till the end and finish with the first half of the chorus
comments
We did not receive enough feedback on this tab! Please rate:
print report bad tab
1 2 3 4 5
I want to post or [tab]
guest
You may want to rate the tab now too:
select rating
Please do not post tabs as comments. Select "correction" instead!