Oops, an error
Loading. Please wait.

Drive Away Tab

2,745 views 15 this week
3 commentsread comments
1 2 3 4 5
please rate
add to favorites
launch autoscroll
font size
0
reset
how to read this tab
guitar tuner
Autoscroll
slow
fast
+/-
esc
set tempo
stop
Help us to improve Ultimate-Guitar.com Take our survey!
×
Author
Difficulty
intermediate
Sundance Kids - Drive Away
Album : Fall into Place
Tabbed by: teaserer

This is pretty much the song, I think... first tab, don't be too critical - but
please do leave comments.


Intro Riff:

e|------0--4--0--7--0--5--4--0--------0-----0--2------------------|
b|---0--------------------------0--4-----0------------------------|
g|----------------------------------------------------------------|
d|----------------------------------------------------------------|
a|----------------------------------------------------------------|
e|----------------------------------------------------------------|

Chorus (listen to song to work out strumming):
           B   C#m   E   E               B  C#m  G#m  G#m
e|----------------------------------------------------------------|
b|----------------------------------------------------------------|
g|----------------------------------------------------------------|
d|----------4---6----9----9--------------4---6--------------------|
a|----------2---4----7----7--------------2---4----6----6----------|
e|------------------------------------------------4----4----------|
        Cuz maybe___   we can take the long way home

           B   C#m   E   E               B  C#m  G#m  G#m
e|----------------------------------------------------------------|
b|----------------------------------------------------------------|
g|----------------------------------------------------------------|
d|----------4---6----9----9--------------4---6--------------------|
a|----------2---4----7----7--------------2---4----6----6----------|
e|------------------------------------------------4----4----------|
      Cuz  lately____   this is what its all about

           B   C#m   E   E               B  C#m  G#m  G#m
e|----------------------------------------------------------------|
b|----------------------------------------------------------------|
g|----------------------------------------------------------------|
d|----------4---6----9----9--------------4---6--------------------|
a|----------2---4----7----7--------------2---4----6----6----------|
e|------------------------------------------------4----4----------|
       I'm yours_____tell me that you're all mine

           B   C#m   E   E               B  C#m  G#m  G#m
e|----------------------------------------------------------------|
b|----------------------------------------------------------------|
g|----------------------------------------------------------------|
d|----------4---6----9----9--------------4---6--------------------|
a|----------2---4----7----7--------------2---4----6----6----------|
e|------------------------------------------------4----4----------|
    Can we say good bye and drive away   tonight____?

Verse 1:
There's actually no guitar but here's the chords, just in case you wanna play along.

B          C#m        E
There's a season for this
                 B
I hope it never ends
           C#m            G#m   A
'Cause we learn in each other over again
B     C#m              E
If we take the time we had
                   B
Until no more remains
      C#m          G#m      A
Then just for now we can escape

Chorus (listen to song to work out strumming):
           B   C#m   E   E               B  C#m  G#m  G#m
e|----------------------------------------------------------------|
b|----------------------------------------------------------------|
g|----------------------------------------------------------------|
d|----------4---6----9----9--------------4---6--------------------|
a|----------2---4----7----7--------------2---4----6----6----------|
e|------------------------------------------------4----4----------|
        Cuz maybe___   we can take the long way home

           B   C#m   E   E               B  C#m  G#m  G#m
e|----------------------------------------------------------------|
b|----------------------------------------------------------------|
g|----------------------------------------------------------------|
d|----------4---6----9----9--------------4---6--------------------|
a|----------2---4----7----7--------------2---4----6----6----------|
e|------------------------------------------------4----4----------|
      Cuz  lately____   this is what its all about

           B   C#m   E   E               B  C#m  G#m  G#m
e|----------------------------------------------------------------|
b|----------------------------------------------------------------|
g|----------------------------------------------------------------|
d|----------4---6----9----9--------------4---6--------------------|
a|----------2---4----7----7--------------2---4----6----6----------|
e|------------------------------------------------4----4----------|
       I'm yours_____tell me that you're all mine

           B   C#m   E   E               B  C#m  G#m  G#m
e|----------------------------------------------------------------|
b|----------------------------------------------------------------|
g|----------------------------------------------------------------|
d|----------4---6----9----9--------------4---6--------------------|
a|----------2---4----7----7--------------2---4----6----6----------|
e|------------------------------------------------4----4----------|
    Can we say good bye and drive away   tonight____?


Verse 2 (just half of verse 1):

B      C#m        E
And I just wanna say
B       C#m           G#m        A
       Here I am now, I am not afraid to drive away

Repeat Intro Riff:

     B                       C#m
e|------0--4--0--7--0--5--4--0--------0-----0--2------------------|
b|---0--------------------------0--4-----0------------------------|
g|----------------------------------------------------------------|
d|----------------------------------------------------------------|
a|----------------------------------------------------------------|
e|----------------------------------------------------------------|

     Gm#                      A
e|------0--4--0--7--0--5--4--0--------0-----0--2------------------|
b|---0--------------------------0--4-----0------------------------|
g|----------------------------------------------------------------|
d|----------------------------------------------------------------|
a|----------------------------------------------------------------|
e|----------------------------------------------------------------|

     B                       C#m
e|------0--4--0--7--0--5--4--0--------0-----0--2------------------|
b|---0--------------------------0--4-----0------------------------|
g|----------------------------------------------------------------|
d|----------------------------------------------------------------|
a|----------------------------------------------------------------|
e|----------------------------------------------------------------|

     Gm#                      A
e|------0--4--0--7--0--5--4--0--------0-----0--2------------------|
b|---0--------------------------0--4-----0------------------------|
g|----------------------------------------------------------------|
d|----------------------------------------------------------------|
a|----------------------------------------------------------------|
e|----------------------------------------------------------------|

Chorus :
           B   C#m   E   E               B  C#m  G#m  G#m
e|----------------------------------------------------------------|
b|----------------------------------------------------------------|
g|----------------------------------------------------------------|
d|----------4---6----9----9--------------4---6--------------------|
a|----------2---4----7----7--------------2---4----6----6----------|
e|------------------------------------------------4----4----------|
        Cuz maybe___   we can take the long way home

           B   C#m   E   E               B  C#m  G#m  G#m
e|----------------------------------------------------------------|
b|----------------------------------------------------------------|
g|----------------------------------------------------------------|
d|----------4---6----9----9--------------4---6--------------------|
a|----------2---4----7----7--------------2---4----6----6----------|
e|------------------------------------------------4----4----------|
      Cuz  lately____   this is what its all about

           B   C#m   E   E               B  C#m  G#m  G#m
e|----------------------------------------------------------------|
b|----------------------------------------------------------------|
g|----------------------------------------------------------------|
d|----------4---6----9----9--------------4---6--------------------|
a|----------2---4----7----7--------------2---4----6----6----------|
e|------------------------------------------------4----4----------|
       I'm yours_____tell me that you're all mine

           B   C#m   E   E               B  C#m  G#m  G#m
e|----------------------------------------------------------------|
b|----------------------------------------------------------------|
g|----------------------------------------------------------------|
d|----------4---6----9----9--------------4---6--------------------|
a|----------2---4----7----7--------------2---4----6----6----------|
e|------------------------------------------------4----4----------|
    Can we say good bye and drive away   tonight____?

Bridge:

F#m     A
 Ahhhhh
F#m      A
 Ahhhhhh

Last chorus (only quiet acoustic guitar chords in first half):

Cuz maybe, we can take the long way home,
Cuz lately, this is what its all about,
           B   C#m   E   E               B  C#m  G#m  G#m
e|----------------------------------------------------------------|
b|----------------------------------------------------------------|
g|----------------------------------------------------------------|
d|----------4---6----9----9--------------4---6--------------------|
a|----------2---4----7----7--------------2---4----6----6----------|
e|------------------------------------------------4----4----------|
       I'm yours_____tell me that you're all mine

           B   C#m   E   E               B  C#m  G#m  G#m
e|----------------------------------------------------------------|
b|----------------------------------------------------------------|
g|----------------------------------------------------------------|
d|----------4---6----9----9--------------4---6--------------------|
a|----------2---4----7----7--------------2---4----6----6----------|
e|------------------------------------------------4----4----------|
    Can we say good bye and drive away   tonight____?

Outro:
     B      C#m           E
e|------0--4--0--7--0--5--4--0--------0-----0--2------------------|
b|---0--------------------------0--4-----0------------------------|
g|----------------------------------------------------------------|
d|----------------------------------------------------------------|
a|----------------------------------------------------------------|
e|----------------------------------------------------------------|

     B      C#m           G#m
e|------0--4--0--7--0--5--4--0--------0-----0--2------------------|
b|---0--------------------------0--4-----0------------------------|
g|----------------------------------------------------------------|
d|----------------------------------------------------------------|
a|----------------------------------------------------------------|
e|----------------------------------------------------------------|

     B      C#m           E
e|------0--4--0--7--0--5--4--0--------0-----0--2------------------|
b|---0--------------------------0--4-----0------------------------|
g|----------------------------------------------------------------|
d|----------------------------------------------------------------|
a|----------------------------------------------------------------|
e|----------------------------------------------------------------|

     B      C#m           G#m
e|------0--4--0--7--0--5--4--0--------0-----0--2------------------|
b|---0--------------------------0--4-----0------------------------|
g|----------------------------------------------------------------|
d|----------------------------------------------------------------|
a|----------------------------------------------------------------|
e|----------------------------------------------------------------|


B    C#m     E(ring off)



Hope it's acurate enough - worked for me. Feel free to comment or send me an e-
mail on teaserer@hotmail.com

The Sundance Kids Website :http://www.thesundancekids.com/
Suggest correction
Give kudos to tab author, rate the tab!
1 2 3 4 5
comments
print report bad tab
3 comments total.
0 reply
FLiP87 21 wrote on January 9 2010, 02:01 am

well done... good tab... now i don't have to do it! :) i had everything ready except my riff was wrong... thanks!

0 reply
Jase_Was_Here 10 wrote on February 12 2010, 11:57 pm

Awesome:) thanks for this mate sounds great, been waiting for ages for someone to tab it

0 reply
davidpn 197 wrote on March 30 2010, 10:50 pm

Great work.. thanks!

guest
You may want to rate the tab now too:
select rating
Please do not post tabs as comments. Select "correction" instead!