Oops, an error
Loading. Please wait.

Dear Undecided bass

28 views 1 this week
no commentswrite comment
1 2 3 4 5
3 more votes to show rating
add to favorites
×
Save as Personal and add changes to this tab that will be seen only by you. Learn more ›
×
You can save this tab as Personal to edit and correct it or add notes. All changes will be seen only by you. Learn more »
launch autoscroll
font size
0
reset
guitar tuner
edit
Autoscroll
slow
fast
+/-
esc
set tempo
stop
Author
Difficulty
Tabbed by: 6METAL6BASSIST6
E-mail: petergriffinav@gmail.com

Tuning: EADG

Re-tabbed.

G|--------------------------------|
D|--------------------------------|
A|--------------------------------|
E|3-------------------------------|

G|----------------------------------------------------------------|
D|----------------5-----------------------------------------------|
A|5-------------------------------3-------------------------------|
E|------------------------------------------------5---------------|

G|----------------------------------------------------------------|
D|----------------5-----------------------------------------------|
A|5-------------------------------3-------------------------------|
E|------------------------------------------------3---------------|

0:10

G|----------------------------------------------------------------|
D|----------------5-----------------------------------------------|
A|5-------------------------------3-------------------------------|
E|------------------------------------------------5---------------|

G|----------------------------------------------------------------|
D|----------------5-------------------------------5---------------|
A|5---------------------------------------------------------------|
E|--------------------------------5-------------------------------|

G|----------------------------------------------------------------|
D|----------------5-----------------------------------------------|
A|5-------------------------------3-------------------------------|
E|------------------------------------------------5---------------|

G|----------------------------------------------------------------|
D|----------------5-----------------------------------------------|
A|5-----------------------3-------3-------3-------5-------5-------|
E|----------------------------------------------------------------|

0:26

G|----------------------------------------------------------------|
D|--------------------------------------------------------2---4---|
A|----------------2-------2-------3-------3-------5---5-----------|
E|3-------3-------------------------------------------------------|

G|----------------------------------------------------------------|
D|5-------5-------------------------------------------------------|
A|----------------2-------2-------3-------3-------5-------5-------|
E|----------------------------------------------------------------|

G|----------------------------------------------------------------|
D|7-------7-------------------------------------------------------|
A|----------------5-------5-----------------------5-------5-------|
E|--------------------------------5-------5-----------------------|

G|----------------------------------------------------------------|
D|----------------------------------------------------------------|
A|----------------------------------------------------------------|
E|3---------------5---------------7-------------------------------|

0:42

G|----------------------------------------------------------------|
D|----------------5-----------------------------------------------|
A|5-------------------------------3-------------------------------|
E|------------------------------------------------5---------------|

G|----------------------------------------------------------------|
D|----------------5-------------------------------5---------------|
A|5---------------------------------------------------------------|
E|--------------------------------5-------------------------------|

G|----------------------------------------------------------------|
D|----------------5-----------------------------------------------|
A|5-------------------------------3-------------------------------|
E|------------------------------------------------5---------------|

G|----------------------------------------------------------------|
D|----------------5-----------------------------------------------|
A|5-------------------------------3-------3-------5-------5-------|
E|----------------------------------------------------------------|

0:57

G|----------------------------------------------------------------|
D|--------------------------------------------------------2---4---|
A|----------------2-------2-------3-------3-------5---5-----------|
E|3-------3-------------------------------------------------------|

G|----------------------------------------------------------------|
D|5-------5-------------------------------------------------------|
A|----------------2-------2-------3-------3-------5-------5---5---|
E|----------------------------------------------------------------|

G|----------------------------------------------------------------|
D|7-------7-------------------------------------------------------|
A|----------------5-------5-----------------------5-------5-------|
E|--------------------------------5-------5-----------------------|

G|----------------------------------------------------------------|
D|----------------------------------------------------10--10--9---|
A|----------------------------------------------------------------|
E|3---------------5---------------7-------------------------------|

1:13

G|----------------------------------------------------------------|
D|10--------------------------------------------------------------|
A|--------------------3---5---7---8-----------------------8---8---|
E|----------------------------------------------------------------|

G|----------------------------------------------------------------|
D|----------------------------------------------------------------|
A|10-------------10-------9-------7---------------7-------7-------|
E|----------------------------------------------------------------|

G|----------------------------------------------------------------|
D|----------------------------------------------------------------|
A|5---------------------------------------------------------------|
E|------------------------10\-----7-----------------------7-------|

G|--------------------------------|
D|--------------------------------|
A|7-------------------------------|
E|--------------------------------|

1:27

G|--------------------------------------------------------|
D|--------------------------------------------------------| x2
A|------------3-----------5-------------------------------|
E|1-------------------------------------------------------|

G|--------------------------------------------------------|
D|----------------------------7-------7-------7-------7---|
A|------------3-----------5-------5-------3-------3-------|
E|1-------------------------------------------------------|

G|--------------------------------|
D|----7-------7-------7-----------|
A|2-------5-------5-------5-------|
E|--------------------------------|

1:39

G|----------------------------------------------------------------|
D|----------------5-----------------------------------------------|
A|5-------------------------------3-------------------------------|
E|------------------------------------------------5---------------|

G|----------------------------------------------------------------|
D|----------------5-------------------------------5---------------|
A|5---------------------------------------------------------------|
E|--------------------------------5-------------------------------|

G|----------------------------------------------------------------|
D|----------------5-----------------------------------------------|
A|5-------------------------------3-------3-----------------------|
E|------------------------------------------------5---------------|

G|----------------------------------------------------------------|
D|----------------5-----------------------------------------------|
A|5-------------------------------3-------3-------5-------5-------|
E|----------------------------------------------------------------|

1:55

G|----------------------------------------------------------------|
D|--------------------------------------------------------2---4---|
A|----------------2-------2-------3-------3-------5---5-----------|
E|3-------3-------------------------------------------------------|

G|----------------------------------------------------------------|
D|5-------5-------------------------------------------------------|
A|----------------2-------2-------3-------3-------5-------5---5---|
E|----------------------------------------------------------------|

G|----------------------------------------------------------------|
D|7-------7-----------------------7-------7-----------------------|
A|----------------5-------5-----------------------5-------5-------|
E|----------------------------------------------------------------|

G|----------------------------------------------------------------|
D|----------------------------------------------------------------|
A|----------------------------------------------------------------|
E|3---------------5---------------7-------------------------------|

2:11

G|----------------------------------------------------------------|
D|----------------5-----------------------------------------------|
A|5-------------------------------3-------------------------------|
E|------------------------------------------------5---------------|

G|----------------------------------------------------------------|
D|----------------5-------------------------------5---------------|
A|5-------------------------------3-------------------------------|
E|----------------------------------------------------------------|

G|----------------------------------------------------------------|
D|----------------5-----------------------------------------------|
A|5-------------------------------3-------------------------------|
E|------------------------------------------------5---------------|

G|--------------------|
D|----------------5---|
A|5-------------------|
E|--------------------|

            
            
Suggest correction
Creating personal tab
Creating personal tab
You can edit any tab online and save it as your Personal.

You can edit, replace or remove any tab part or add personal notes – all changes will be seen only by you.

Personal tabs can be accessed anytime from any device, even offline.
Learn more »
Give kudos to tab author, rate the tab!
1 2 3 4 5
comments
print report bad tab
guest
You may want to rate the tab now too:
select rating
Wanna post a correction for this tab? Suggest correction