Oops, an error
Loading. Please wait.

Sirin Bass Tab

54 views 1 this week
no commentswrite comment
1 2 3 4 5
please rate
add to favorites
launch autoscroll
font size
0
reset
guitar tuner
Tab Pro tools
  • play this tab
  • loop segment
  • change instrument
  • show fretboard
  • metronome
×
Best way to learn
"Sirin"
Autoscroll
slow
fast
+/-
esc
set tempo
stop
Contributor
Difficulty
Tuning
intermediate
C G C F A D
*-----NOTE-----* The Sunless Year is signed to BRIMSTONE RECORDS, of northern Michigan, 
proof of this can be found at The Sunless Year's official MySpace page:
      http://www.myspace.com/thesunlessyear


                                    (Bassline)


Gtr I (C G C F) - 'Matt Mason'

    Q=160
   4/4
    Gtr I
    E E S S E S S E E S S   +E  E S S E S S E E E
||------------------------|-----------------------|
||o-----------------------|-------------4-5-4-----|
||o-----3-5---3-5-----3-5-|-(5)---3-5---------6-5-|
||--0-0-----0-----0-0-----|-----0-----0-----------|


  +E  E S S E S S E E E   +E  E S S E E E E E    4x
|-----------------------|------------------------||
|-----------------------|-----------------------o||
|-(5)---3-5---3-5-------|-----------------------o||
|-----0-----0-----0-0-3-|-(3)-3-3-3-3-4-3-1-0----||


      S S S S E S S S S E S S S S   E S S S S E S S S S S S S S
|-||------------------------------|------------------------------|
|-||o-----------------------------|------------------------------|
|-||o-----------------------------|------------------------------|
|-||--0-0-0-----0-0-0-----0-0-0---|---0-0-0-----0-0-0---0-0-0----|


  E S S S S E S S S S E E   S S E E S S E E E E  4x
|-------------------------|----------------------||-|
|-------------------------|-6-7-6---5-6-5-------o||-|
|-------------------------|-------8-------6-3-5-o||-|
|---0-0-0-----0-0-0---0-0-|----------------------||-|


    E E E E E E E E   E E E E E E E E   E E E E E E E E   E E S S E E S S E E
||------------------|-----------------|-----------------|----------------------|
||o-----------------|-----------------|-----------------|----------------------|
||o-----------------|-----------------|-----------------|----------------------|
||--5-5-5-5-5-5-5-5-|-5-5-5-5-5-5-5-5-|-5-5-5-5-5-5-5-5-|-5-0-0-0-0-0-0-0-0-0--|


  E E E E E E E E    E  E  E  E  E  E E E
|-----------------|-----------------------|
|-----------------|-----------------------|
|-----------------|-----------------------|
|-8-8-8-8-8-8-8-8-|-12-12-12-10-10-10-8-8-|


  E E E E E E E E   E E E E E E E E
|-----------------|------------------||
|-----------------|-----------------o||
|-----------------|-----------------o||
|-7-7-7-7-7-7-7-7-|-0-3-2-7-6-2-3-4--||


    E E E E E E E E   E E E E E E E E
||------------------|-----------------|
||o-----------------|-----------------|
||o-----------------|-----------------|
||--0-3-2-7-6-2-3-4-|-0-3-2-7-6-2-3-4-|


  E E E E E E E E   S S S S S S S S S S S S S S S S  4x
|-----------------|----------------------------------||
|-----------------|---------------------------------o||
|-----------------|---------------------------------o||
|-0-3-2-7-6-2-3-4-|-0-0-0-0---0-0-0-0---0-0-0-0---0--||


  E S S S S E E S S S S E   E S S S S E E S S S S E
|-------------------------|-------------------------|
|-------------------------|-------------------------|
|-------------------------|-------------------------|
|---0-0-0-0-----0-0-0-0---|---0-0-0-0-----0-0-0-0---|


              |-3-|                                  |-3-|
  E S S S S E Q Q Q   E S S S S E H      E S S S S E Q Q Q   E S S S S E H
|-------------------|------------------|-------------------|------------------|
|-------------------|------------------|-------------------|------------------|
|-------------------|------------------|-------------------|------------------|
|---0-0-0-0---1-0-0-|---0-0-0-0--------|---0-0-0-0---1-0-0-|---0-0-0-0--------|


  Q  Q  Q  Q    Q  Q  Q  Q    Q  Q  Q  Q    Q  Q  Q  Q    Q  Q  Q  Q
|-------------|-------------|-------------|-------------|-------------|
|-------------|-------------|-------------|-------------|-------------|
|-------------|-------------|-------------|-------------|-------------|
|-0--7--3--6--|-0-----------|-------------|-0-----------|-------------|


  W          +W           Q  Q  Q  Q    Q  Q  Q  Q
|----------|------------|-------------|-------------|
|----------|------------|-------------|-------------|
|----------|------------|-------------|-------------|
|-0--------|-(0)--------|-0-----------|-------------|


    S S S S S S S S S S S S S S S S   +S  S S S S S S S S S S S S S S S
||----------------------------------|------------------------------------|
||o---------------------------------|------------------------------------|
||o---------------------------------|------------------------------------|
||--0-0---0-0---0-0-0-0-0-0-0---3-3-|-(3)-0-0---0-0---0-0-0-0-0-0--------|


  S S S S S S S S S S S S S S  S  S    +S   S  S S S S S S S S S S S S S S
|-----------------------------------|--------------------------------------|
|-----------------------------------|--------------------------------------|
|-----------------------------------|--------------------------------------|
|-8-8---8-8---8-8-8-8-8-8-8---12-12-|-(12)-10-10---8-8---8-8-8-8-8-8-------|


  S S S S S S S S S S S S S S S S   +S  S S S S S S S S S S S S S S S
|---------------------------------|-----------------------------------|
|---------------------------------|-----------------------------------|
|---------------------------------|-----------------------------------|
|-5-5---5-5---5-5-5-5-5-5-5---8-8-|-(8)-7-7---5-5---5-5-5-5-5-5-------|


  S S S S S S S S S S S S S S S S   +S  S S S S S S S S S S S S S S S
|---------------------------------|------------------------------------||
|---------------------------------|-----------------------------------o||
|---------------------------------|-----------------------------------o||
|-3-3---3-3---3-3-3-3-3-3-3---5-5-|-(5)-2-2---2-2---2-2-2-2-2-2--------||


  S E S Q  S E S E E   S E S Q  H      S E S Q  S E S E E   S E S Q  H
|--------------------|---------------|--------------------|---------------|
|--------------------|---------------|--------------------|---------------|
|--------------------|---------------|--------------------|---------------|
|-0-0-0-0--0-0-0-0-0-|-0-0-0-0-------|-0-0-0-0--0-0-0-0-0-|-0-0-0-0-------|


Duration Legend
---------------
W - whole; H - half; Q - quarter; E - 8th; S - 16th; T - 32nd; X - 64th; a - acciaccatura
+ - note tied to previous; . - note dotted; .. - note double dotted
Uncapitalized letters represent notes that are staccato (1/2 duration)
Irregular groupings are notated above the duration line
Duration letters will always appear directly above the note/fret number it represents the
duration for.  Duration letters with no fret number below them represent rests.  Multi-
bar rests are notated in the form Wxn, where n is the number of bars to rest for.  Low
melody durations appear below the staff

Tablature Legend
----------------
 h   - hammer-on
 p   - pull-off
 b   - bend
 pb  - pre-bend
 r   - bend release (if no number after the r, then release immediately)
 /\  - slide into or out of (from/to "nowhere")
 s   - legato slide
 S   - shift slide
  - natural harmonic
[n]  - artificial harmonic
n(n) - tapped harmonic
 ~   - vibrato
 tr  - trill
 T   - tap
 TP  - trem. picking
 PM  - palm muting
\n/  - tremolo bar dip; n = amount to dip
 \n  - tremolo bar down
 n/  - tremolo bar up
/n\  - tremolo bar inverted dip
 =   - hold bend; also acts as connecting device for hammers/pulls
 <>  - volume swell (louder/softer)
 x   - on rhythm slash represents muted slash
 o   - on rhythm slash represents single note slash

Misc Legend
-----------
 |  - bar
||  - double bar
||o - repeat start
o|| - repeat end
*|  - double bar (ending)
 :  - bar (freetime)
 $  - Segno
 &  - Coda
Tempo markers -  = BPM(8/16=s8/s16), where s8 = swing 8ths, s16 = swing 16ths


***************************************************************************************
* Generated using Power Tab Editor by Brad Larsen - http://powertab.guitarnetwork.org *
***************************************************************************************
comments
We did not receive enough feedback on this tab! Please rate:
print report bad tab
1 2 3 4 5
I want to post or [tab]
guest
You may want to rate the tab now too:
select rating
Please do not post tabs as comments. Select "correction" instead!