Oops, an error
Loading. Please wait.

The Wraith Bass Tab

46 views 1 this week
no commentswrite comment
1 2 3 4 5
3 more votes to show rating
add to favorites
launch autoscroll
font size
0
reset
guitar tuner
Autoscroll
slow
fast
+/-
esc
set tempo
stop
Help us to improve Ultimate-Guitar.com Take our survey!
×
Author
*-----NOTE-----* The Sunless Year is signed to BRIMSTONE RECORDS, of northern 
Michigan, and proof of this can be found at The Sunless Year's official MySpace page:
      http://www.myspace.com/thesunlessyear



                                    (Bassline)


Gtr I (C G C F) - 'Matt Mason'

  Q=130
  Gtr I
    E  S S   E    E  S S   E    E  S S
|-(11)-----(11)-(11)-----(11)-(11)-----|
|-(10)-----(10)-(10)-----(10)-(10)-----|
|---9--------9----9--------9----9------|
|------0-0-----------0-0-----------0-0-|


    E  S S   E    E  S S   E    E  S S   W
|-(11)-----(11)-(11)-----(11)-(11)-----|------|
|-(10)-----(10)-(10)-----(10)-(10)-----|------|
|---9--------9----9--------9----9------|------|
|------0-0-----------0-0-----------0-0-|------|


  S S S S S S S S T T T T E T T T T E   H     H
|-------------------------------------|-------------|
|-------------------------------------|-------------|
|-------------------------------------|-------------|
|-0-0-0-0---0-0---0-0-0-0-0-0-0-0-0-0-|-0s===12/----|


  S S S S S S S S T T T T E S S S S   Q  E E E E E E
|-----------------------------------|-------------------|
|-----------------------------------|-------------------|
|-----------------------------------|-------------------|
|-0-0-0-0---0-0---0-0-0-0-0-0-0-0-0-|-0--x-x-x-x-x-x----|


  S S S S S S S S T T T T E T T T T E    H     H
|-------------------------------------|--------------|
|-------------------------------------|--------------|
|-------------------------------------|--------------|
|-0-0-0-0---0-0---0-0-0-0-0-0-0-0-0-0-|--0s===12/----|


  S S S S S S S S T T T T E S S S S   E E E E E E   E E
|-----------------------------------|----------------------|
|-----------------------------------|----------------------|
|-----------------------------------|-6-6-6-6-6------------|
|-0-0-0-0---0-0---0-0-0-0-0-0-0-0-0-|-----------0-/12s0----|


    E  S S   E    E  S S   E    E  S S     E  S S   E    E  S S   E    E  S S
|-(11)-----(11)-(11)-----(11)-(11)-----|-(11)-----(11)-(11)-----(11)-(11)-----|
|-(10)-----(10)-(10)-----(10)-(10)-----|-(10)-----(10)-(10)-----(10)-(10)-----|
|---9--------9----9--------9----9------|---9--------9----9--------9----9------|
|------0-0-----------0-0-----------0-0-|------0-0-----------0-0-----------0-0-|


    E  S S   E    E  S S   E    E  S S     E  S S   E    E  S S   E    E  S S
|-(11)-----(11)-(11)-----(11)-(11)-----|-(11)-----(11)-(11)-----(11)-(11)--------|
|-(10)-----(10)-(10)-----(10)-(10)-----|-(10)-----(10)-(10)-----(10)-(10)--------|
|---9--------9----9--------9----9------|---9--------9----9--------9----9---------|
|------0-0-----------0-0-----------0-0-|------0-0-----------0-0-----------0-0----|


    E  S S   E    E  S S   E    E  S S     E  S S   E    E  S S   E    E  S S
|-(16)-----(16)-(16)-----(16)-(16)-----|-(16)-----(16)-(16)-----(16)-(16)-----|
|-(15)-----(15)-(15)-----(15)-(15)-----|-(15)-----(15)-(15)-----(15)-(15)-----|
|--14-------14---14-------14---14------|--14-------14---14-------14---14------|
|------0-0-----------0-0-----------0-0-|------0-0-----------0-0-----------0-0-|


    E  S S   E    E  S S   E    E  S S     E  S S   E    E  S S   E    E  S S
|-(16)-----(16)-(16)-----(16)-(16)-----|-(16)-----(16)-(16)-----(16)-(16)-----|
|-(15)-----(15)-(15)-----(15)-(15)-----|-(15)-----(15)-(15)-----(15)-(15)-----|
|--14-------14---14-------14---14------|--14-------14---14-------14---14------|
|------0-0-----------0-0-----------0-0-|------0-0-----------0-0-----------0-0-|


  Q  Q  S S S S S S S S   Q  Q  E E E E
|-----------------------|---------------|
|-----------------------|---------------|
|-----------------------|---------------|
|-------------3---5---6-|-------0-1-6-5-|


  Q  Q  S S S S S S S S   Q  Q  E E E E
|-----------------------|----------------|
|-----------------------|----------------|
|-----------------------|----------------|
|-------------3---5---6-|-------0-1-6-5--|


    S S S S S S S S S S S S S S S S   S S S S S S S S E E E E
||----------------------------------|----------------------------|
||o---------------------------------|----------------------------|
||o---------------------------------|----------------------------|
||--2-2-2-2-2-2-2-2-2-2-2-3-2-5-2-6-|-2-2-2-2-2-2-2-2-0-1-6-5----|


  S S S S S S S S S S S S S S S S   S S S S S S S S E E E E
|---------------------------------|----------------------------|
|---------------------------------|----------------------------|
|---------------------------------|----------------------------|
|-2-2-2-2-2-2-2-2-2-2-2-3-2-5-2-6-|-2-2-2-2-2-2-2-2-0-1-6-5----|


  S S S S S S S S S S S S S S S S   S S S S S S S S E E E E
|---------------------------------|----------------------------|
|---------------------------------|----------------------------|
|---------------------------------|----------------------------|
|-4-4-4-4-4-4-4-4-4-4-4-5-4-7-4-8-|-4-4-4-4-4-4-4-4-2-3-8-7----|


  S S S S S S S S S S S S S S S S   S S S S S S S S E E E E
|---------------------------------|-----------------------------||
|---------------------------------|----------------------------o||
|---------------------------------|----------------------------o||
|-4-4-4-4-4-4-4-4-4-4-4-5-4-7-4-8-|-4-4-4-4-4-4-4-4-2-3-8-7-----||


  Q.   Q.     Q.   Q.     H      W          W
|-----------|-----------|------|----------|------|
|-----------|-----------|------|----------|------|
|-----------|-----------|------|----------|------|
|-3----3----|-3----3----|-0----|----------|------|


  W          W          W          W
|----------|----------|----------|------|
|----------|----------|----------|------|
|----------|----------|----------|------|
|----------|----------|----------|------|


  W          Q  Q  Q  E  E    S S E S S E S S S S E S S
|----------|----------------|---------------------------|
|----------|----------------|---------------------------|
|----------|----------------|-6-9---5-8-------------5-8-|
|----------|----------0s12\-|-----0-----0-0-0-0-0-0-----|


  E S S E S S E S S S S E   S S E S S E S S S S E S S   E S S E S S E S S S S E
|-------------------------|---------------------------|-------------------------|
|-------------------------|---------------------------|-------------------------|
|---5-8---4-7-------------|-6-9---5-8-------------5-8-|---5-8---4-7-------------|
|-0-----0-----0-0-0-0-0-0-|-----0-----0-0-0-0-0-0-----|-0-----0-----0-0-0-0-0-0-|


  S S E S S E S S S S E S S   E S S E S S E S S S S E
|---------------------------|-------------------------|
|---------------------------|-------------------------|
|-6-9---5-8-------------5-8-|---5-8---4-7-------------|
|-----0-----0-0-0-0-0-0-----|-0-----0-----0-0-0-0-0-0-|


  S S E S S E S S S S E S S   E S S E S S E S S S S E
|---------------------------|--------------------------|
|---------------------------|--------------------------|
|-6-9---5-8-------------5-8-|---5-8---4-7--------------|
|-----0-----0-0-0-0-0-0-----|-0-----0-----0-0-0-0-0-0--|


  E E E E E E E E   E E E Q  E     E E E E E E E E   E E E Q  E
|-8---7---------7-|---7---6------|-8---7---------7-|---7---6------|
|-7---6---------6-|---6---5------|-7---6---------6-|---6---5------|
|-6---5---------5-|---5---4------|-6---5---------5-|---5---4------|
|---------0-0-0---|-0---0----0---|---------0-0-0---|-0---0----0---|


  E E E E E E E E   E E E Q  E     E E E E E E E E   E E E Q  E  E E
|-8---7---------7-|---7---6------|-8---7-----------|-------6---------|
|-7---6---------6-|---6---5------|-7---6-----------|-------5---------|
|-6---5---------5-|---5---4------|-6---5-----------|-------4---------|
|---------0-0-0---|-0---0----0---|---------0-0-0---|----------0s12s0-|


  Q.   Q.     Q.   Q.     Q  E E   Q.   Q.    Q.    Q.    Q  E E
|-----------|-----------|--------|----------|-----------|---------|
|-----------|-----------|--------|----------|-----------|---------|
|-----------|-----------|--------|----------|-----------|---------|
|-3----3----|-3----3----|-3--3-3-|-3----3---|-3-----3---|-3--3-3--|


  Q.   Q.     Q.   Q.     Q  E E   Q.   Q.     Q.   Q.    H
|-----------|-----------|--------|-----------|----------|------|
|-----------|-----------|--------|-----------|----------|------|
|-----------|-----------|--------|-----------|----------|------|
|-3----3----|-3----3----|-3--3-3-|-3----3----|-3----3---|-3----|


  Q.   Q.    Q.    Q.    Q  E E      W           W
|----------|----------|------------|-----------|------|
|----------|----------|------------|-----------|------|
|----------|----------|------------|-----------|------|
|-0----0---|-0-----0--|--0--0-0----|-----------|------|


  H.      +Q     H.      +Q     H.      +Q     H.      +Q
|--------------|--------------|--------------|--------------|
|--------------|--------------|--------------|--------------|
|--------------|--------------|--------------|--------------|
|-1-------(1)s=|=7-------(7)--|-1-------(1)s=|=7-------(7)--|


  H.      +Q     H.      +Q     W          E S S E S S E S S E S S
|--------------|--------------|----------|-------------------------|
|--------------|--------------|----------|-------------------------|
|--------------|--------------|----------|-----2-----------1-------|
|-1-------(1)s=|=7-------(7)--|-6--------|-3-----3-----2-----2-----|


  H       H         H       H         H       H         H       H
|-----------------|-----------------|-----------------|------------------|
|-----------------|-----------------|-----------------|------------------|
|-----------------|-----------------|-----------------|------------------|
|-1pb2r===1pb2r===|=1pb2r===1pb2r===|=1pb2r===1pb2r===|=3pb4r===2pb3r====|


  H       H         H       H         H       H         H       H
|-----------------|-----------------|-----------------|------------------|
|-----------------|-----------------|-----------------|------------------|
|-----------------|-----------------|-----------------|------------------|
|-1pb2r===1pb2r===|=1pb2r===1pb2r===|=1pb2r===1pb2r===|=3pb4r===2pb3r====|


  H       H         H       H         H       H         H       H
|-----------------|-----------------|-----------------|------------------|
|-----------------|-----------------|-----------------|------------------|
|-----------------|-----------------|-----------------|------------------|
|-1pb2r===1pb2r===|=1pb2r===1pb2r===|=1pb2r===1pb2r===|=3pb4r===2pb3r====|


  H       H         H       H         H       H         H       H
|-----------------|-----------------|-----------------|------------------|
|-----------------|-----------------|-----------------|------------------|
|-----------------|-----------------|-----------------|------------------|
|-1pb2r===1pb2r===|=1pb2r===1pb2r===|=1pb2r===1pb2r===|=3pb4r===2pb3r====|


  W        +W         +W         +W
|---------------------------------------*|
|---------------------------------------*|
|---------------------------------------*|
|-1--------(1)--------(1)--------(1)----*|


Duration Legend
---------------
W - whole; H - half; Q - quarter; E - 8th; S - 16th; T - 32nd; X - 64th; a - acciaccatura
+ - note tied to previous; . - note dotted; .. - note double dotted
Uncapitalized letters represent notes that are staccato (1/2 duration)
Irregular groupings are notated above the duration line
Duration letters will always appear directly above the note/fret number it represents the
duration for.  Duration letters with no fret number below them represent rests.  Multi-
bar rests are notated in the form Wxn, where n is the number of bars to rest for.  Low
melody durations appear below the staff

Tablature Legend
----------------
 h   - hammer-on
 p   - pull-off
 b   - bend
 pb  - pre-bend
 r   - bend release (if no number after the r, then release immediately)
 /\  - slide into or out of (from/to "nowhere")
 s   - legato slide
 S   - shift slide
  - natural harmonic
[n]  - artificial harmonic
n(n) - tapped harmonic
 ~   - vibrato
 tr  - trill
 T   - tap
 TP  - trem. picking
 PM  - palm muting
\n/  - tremolo bar dip; n = amount to dip
 \n  - tremolo bar down
 n/  - tremolo bar up
/n\  - tremolo bar inverted dip
 =   - hold bend; also acts as connecting device for hammers/pulls
 <>  - volume swell (louder/softer)
 x   - on rhythm slash represents muted slash
 o   - on rhythm slash represents single note slash

Misc Legend
-----------
 |  - bar
||  - double bar
||o - repeat start
o|| - repeat end
*|  - double bar (ending)
 :  - bar (freetime)
 $  - Segno
 &  - Coda
Tempo markers -  = BPM(8/16=s8/s16), where s8 = swing 8ths, s16 = swing 16ths


***************************************************************************************
* Generated using Power Tab Editor by Brad Larsen - http://powertab.guitarnetwork.org *
***************************************************************************************
Suggest correction
Give kudos to tab author, rate the tab!
1 2 3 4 5
comments
print report bad tab
guest
You may want to rate the tab now too:
select rating
Wanna post a correction for this tab? Suggest correction