Oops, an error
Loading. Please wait.

Spotlight In The Sun Tab

version 2
version 2

Whole song

283 views 1 this week
3 commentsread comments
1 2 3 4 5
3 more votes to show rating
add to favorites
launch autoscroll
font size
0
reset
how to read this tab
guitar tuner
Autoscroll
slow
fast
+/-
esc
set tempo
stop
Help us to improve Ultimate-Guitar.com Take our survey!
×
Author
Difficulty
novice
-------------------------------------------------------------------------------
              Spotlight In The Sun - The Sun Piliots
                      http://thesunpilots.com/
-------------------------------------------------------------------------------
Tabbed by: Yanesmeister
Email: ryf182@hotmail.com

Intro: x2

e|----------------000000---|
B|---1-0----3-----333030---|
G|---2-0----0-----222222---|
D|--2------0--0--0---------|
A|-0-----------------------|
E|--------3----------------|

Verse:

  What´s wrong with me...
e|----------------000000---|
B|---1-0----3-----333030---|
G|---2-0----0-----222222---|
D|--2------0--0--0---------|
A|-0-----------------------|
E|--------3----------------|

  Should I Come Clean...
e|----------------000000---|
B|---1-0----3-----333030---|
G|---2-0----0-----222222---|
D|--2------0--0--0---------|
A|-0-----------------------|
E|--------3----------------|

  Cause there´s a spotligth in the sun... On me... A- C G D
e|----------------000000---|
B|---1-0----3-----333030---|
G|---2-0----0-----222222---|
D|--2------0--0--0---------|
A|-0-----------------------|
E|--------3----------------|


She´s captured in the ground... A- C G
D
She´s trying to bring me down... A- C G

Verse:

  I´m standing still...
e|----------------000000---|
B|---1-0----3-----333030---|
G|---2-0----0-----222222---|
D|--2------0--0--0---------|
A|-0-----------------------|
E|--------3----------------|

-And the whole song is exactly the same¡ thanks a lot¡
-If you can´t find this song search it on youtube.com, this band is starting but they 
excellent musicians¡
-Ciao, Bye, Adios...
-http://thesunpilots.com/


                A Guitar Is The Human Soul
                                      Speaking With Just Six Stings
Suggest correction
Give kudos to tab author, rate the tab!
1 2 3 4 5
comments
print report bad tab
3 comments total.
-1 reply
Denomoses 10 Apr 15, 2008 07:32 AM

dude the lyrics arent should i conclede its should i come clean. also the intro chords are wrong

0 reply
wonderbread089 10 Jan 09, 2009 10:16 PM

The Intro chords are fine. Good Tab.

0 reply
Yanesmeister 148 Feb 08, 2009 12:45 AM

Yeah... sorry, but I was new on this things... :) hope u understand...

guest
You may want to rate the tab now too:
select rating
Wanna post a correction for this tab? Suggest correction