Oops, an error
Loading. Please wait.

I Cant Help But Wonder Bass Tab

4 views 1 this week
no commentswrite comment
1 2 3 4 5
3 more votes to show rating
add to favorites
launch autoscroll
font size
0
reset
guitar tuner
Autoscroll
slow
fast
+/-
esc
set tempo
stop
Help us to improve Ultimate-Guitar.com Take our survey!
×
Author
Difficulty
novice
Tabbed by: 6METAL6BASSIST6
E-mail: petergriffinav@gmail.com

Tuning: EADG

G|------------------------------------------------------------------------------------------------|
D|----------------------5-----------------------5-----------------------5-4-----------------4-----|
A|----------------5-7-----------7-----5---5-7---------------------------------------7-5---7-----2-|
E|------------------------------------------------------------------------------------------------|

G|------------------------------------------------------------------------------------------------|
D|--------------------5-6-7---------------------------------------------------------------------4-|
A|----------5-7---------------------5-----------5-5---5-----5-----5-----5-5---5-----5-----5-5-7---|
E|------------------------------------------------------------------------------------------------|

0:15

G|------------------------------------------2-----------------------------------------------2-----|
D|5---------5-5-----2---------------------4-----5-----------5-5-----2---------------------4-----5-|
A|----------------5-----3-----------3-5---------------------------5-----3-----------3-5-----------|
E|------------------------------------------------------------------------------------------------|

G|------------------------------------------2-----------------------------------------------2---3-|
D|5---------5-5-----2---------------------4-----5-----------5-5-----2---------------------4-------|
A|----------------5-----3-----------3-5---------------------------5-----3-----------3-5-----------|
E|------------------------------------------------------------------------------------------------|

0:30

G|4-----4-----4-----------------------------------4-----4-----4-----4-----------------------------|
D|----------------4-------2-----2-----2---4-5---7-----------------4-------2-----2-----2---4-6---7-|
A|----------------------2-----------2-----------------------------------------------2-------------|
E|------------------------------------------------------------------------------------------------|

G|----------------4-6---7-----6-----4-------------4-----------4---6-8---9-----8-----6-----4-----4-|
D|------------7---------------------------7-----7-----------4-------------------------------------|
A|----------7-------------------------------------------------------------------------------------|
E|------------------------------------------------------------------------------------------------|

0:45

G|----------------------4-----------4-6---4-----4-----------------------4-----------4-6---4-----4-|
D|2---------2-2---4-6-----------------------6-----2---------2-2---4-6-----------------------6-----| x2
A|------------------------------------------------------------------------------------------------|
E|------------------------------------------------------------------------------------------------|

G|------------------4---5-----4-------------------|
D|5-----------5---7-----------------7-----5-------|
A|----------5-----------------------------------5-|
E|------------------------------------------------|

1:02

G|------------------------------------------2-----------------------------------------------2-----|
D|5---------5-5-----2---------------------4-----5-----------5-5-----2---------------------4-----5-|
A|----------------5-----3-----------3-5---------------------------5-----3-----------3-5-----------|
E|------------------------------------------------------------------------------------------------|

G|------------------------------------------2-----------------------------------------------2---3-|
D|5---------5-5-----2---------------------4-----5-----------5-5-----2---------------------4-------|
A|----------------5-----3-----------3-5---------------------------5-----3-----------3-5-----------|
E|------------------------------------------------------------------------------------------------|

1:17

G|4-----4-----4-----4-----------------------------4---------4-4-----4-----------------------------|
D|----------------4-------2-----2-----2---4-5---7-----------------4-------2-----2-----2---4-6---7-|
A|----------------------------------2-----------------------------------------------2-------------|
E|------------------------------------------------------------------------------------------------|

G|----------------4-6---7-----6-----4-------------4-----------4---6-8---9-----8-----6-----4-----4-|
D|------------7---------------------------7-----7-----------4-------------------------------------|
A|----------7-------------------------------------------------------------------------------------|
E|------------------------------------------------------------------------------------------------|

1:31

G|----------------------4-----------4-6---4-----4-----------------------4-----------4-6---4-----4-|
D|2---------2-2---4-6-----------------------6-----2---------2-2---4-6-----------------------6-----| x2
A|------------------------------------------------------------------------------------------------|
E|------------------------------------------------------------------------------------------------|

G|------------------4---5-----4-------------------|
D|5-----------5---7-----------------7-----5-------|
A|----------5-----------------------------------6-|
E|------------------------------------------------|

1:49

G|------------------------------------------------------------------------------------6-5-3-------|
D|------------------------------------3-------------------------------------------3-6-------6-3---|
A|------------------3---6-----------6-----6-3---6-------------------3---6-------6---------------6-|
E|4-----4-----4---6-------------------------------4---------4-4---6-------------------------------|

Until fadeout.

G|------------------------------------------------------------------------------------6-5-3-------|
D|------------------------------------3-------------------------------------------3-6-------6-3---|
A|------------------3---6-----------6-----6-3---6-------------------3---6-------6---------------6-|
E|4---------4-4---6-------------------------------4---------4-4---6-------------------------------|
Suggest correction
Give kudos to tab author, rate the tab!
1 2 3 4 5
comments
print report bad tab
guest
You may want to rate the tab now too:
select rating
Wanna post a correction for this tab? Suggest correction