Oops, an error
Loading. Please wait.

I Just Want To Be Your Friend Bass Tab

13 views 1 this week
no commentswrite comment
1 2 3 4 5
3 more votes to show rating
add to favorites
launch autoscroll
font size
0
reset
guitar tuner
Autoscroll
slow
fast
+/-
esc
set tempo
stop
Help us to improve Ultimate-Guitar.com Take our survey!
×
Author
Difficulty
novice
Tabbed by: 6METAL6BASSIST6
E-mail: petergriffinav@gmail.com

Tuning: EADG

G|--------4-------4-----------------------4-------4---------------|
D|----4-------4-----------------------4-------4-------------------| x2
A|2-------------------------------2-------------------------------|
E|----------------------------------------------------------------|

0:08

G|----------------------------------------------------------------|
D|----------------4-------4-----------------------4-------3-------|
A|2-----------2-------------------2-----------2-------------------|
E|----------------------------------------------------------------|

G|----------------------------------------------------------------|
D|2-----------2-------------------2-----------2-------------------|
A|----------------2-------2-----------------------2-------2-------|
E|----------------------------------------------------------------|

G|----------------------------------------------------------------|
D|----------------2-------2---------------------------------------|
A|0-----------0-------------------0-----------0---2-------3-------|
E|----------------------------------------------------------------|

G|----------------------------------------------------------------|
D|----------------------------2---4-------------------------------|
A|4-----------4-----------4-------------------------------1-------|
E|----------------4---------------------------2---4---------------|

0:23

G|----------------------------------------------------------------|
D|----------------4-------4-----------------------4-------4-------|
A|2-----------2-------------------2-----------2-------------------|
E|----------------------------------------------------------------|

G|----------------------------------------------------------------|
D|2-----------2-------------------2-----------2-----------2-------|
A|----------------2-------2-----------------------2---------------|
E|----------------------------------------------------------------|

G|----------------------------------------------------------------|
D|----------------2-------2---------------------------------------|
A|0-----------0-------------------0-----------0---2-------3-------|
E|----------------------------------------------------------------|

G|----------------------------------------------------------------|
D|----------------------------------------------------------------|
A|4-----------4---4-------4-------------------------------1-------|
E|--------------------------------2-----------2---4---------------|

0:39

G|----------------------------------------------------------------|
D|----------------------------------------------------------------|
A|2-----------2---2-------2-------2-----------2---2-------2-------|
E|----------------------------------------------------------------|

G|----------------------------------------------------------------|
D|------------------------1-------2-----------2-----------2-------|
A|2-----------2---4-------------------------------2---------------|
E|----------------------------------------------------------------|

G|----------------------------------------------------------------|
D|------------4-----------------------4---------------------------|
A|4-----------------------4---------------------------------------|
E|----------------------------------------------------------------|

G|------------------------------------------------------------------------|
D|------------4-----------------------4-----------------------------------|
A|4-----------------------4-----------------------------------------------|
E|------------------------------------------------------------------------|

G|----------------------------------------------------------------|
D|----------------------------------------------------------------|
A|----------------------------------------------------------------|
E|2---2---2---2---2---2---2---2---2---2---2---2---2---2---2-------|

0:59

G|----------------------------------------------------4-----------|
D|----------------4-------4-----------------------4-------4-------| x2
A|2-----------2-------------------2-----------2-------------------|
E|----------------------------------------------------------------|

1:07

G|----------------------------------------------------------------|
D|----------------4-----------4-------------------4-------3-------|
A|2-----------2-------------------2-----------2-------------------|
E|----------------------------------------------------------------|

G|----------------------------------------------------------------|
D|2-----------2-------------------2-----------2-----------2-------|
A|----------------2-----------2-------------------2---------------|
E|----------------------------------------------------------------|

G|----------------------------------------------------------------|
D|----------------2-------2---------------------------------------|
A|0-----------0-------------------0-----------0---2-------3-------|
E|----------------------------------------------------------------|

G|----------------------------------------------------------------|
D|----------------------------------------------------------------|
A|4-----------------------4---------------------------------------|
E|----------------4-----------4---2-----------2---2-----------2---|

G|----------------------------------------------------------------|
D|----------------------------------------------------------------|
A|----------------------------------------------------------------|
E|2---2---2---2---2---2---2---2---2---2---2---2---2---2---2---2---|

G|--------------------------------|
D|--------------------------------|
A|--------------------------------|
E|2---2---2---2---2---2---2---2---|

1:29

G|----------------------------------------------------------------|
D|------------------------2---4---------------------------2---4---| x7
A|----------------2---4---------------------------2---4-----------|
E|2-----------2-------------------2-----------2-------------------|

G|----------------------------------------------------------------|
D|------------------------2---4-----------------------------------|
A|----------------2---4-------------------------------------------|
E|2-----------2-------------------2-------------------------------|

2:00 until fadeout.

G|----------------------------------------------------------------|
D|----------------4-----------4-------------------4-------4---2---|
A|2-----------2-------------------2-----------2-------------------|
E|----------------------------------------------------------------|

G|----------------------------------------------------------------|
D|2-----------2-------------------2-----------2-----------2-------|
A|----------------2-------2-----------------------2---------------|
E|----------------------------------------------------------------|
Suggest correction
Give kudos to tab author, rate the tab!
1 2 3 4 5
comments
print report bad tab
guest
You may want to rate the tab now too:
select rating
Wanna post a correction for this tab? Suggest correction