Oops, an error
Loading. Please wait.

I Need You Bass Tab

4 views 1 this week
no commentswrite comment
1 2 3 4 5
3 more votes to show rating
add to favorites
launch autoscroll
font size
0
reset
guitar tuner
Autoscroll
slow
fast
+/-
esc
set tempo
stop
Help us to improve Ultimate-Guitar.com Take our survey!
×
Author
Difficulty
novice
Tabbed by: 6METAL6BASSIST6
E-mail: petergriffinav@gmail.com

Tuning: EADG

0:11

G|----------------------------------------------------------------|
D|----------------------------------------------------------------| x7
A|----------------------------------------------------------------|
E|5---------------5---------------5---------------5---------------|

0:50

G|----------------------------------------------------------------|
D|----------------------------------------------------------------| x2
A|----------------------------------------------------------------|
E|5---------------5---------------5---------------5---------------|

G|--------------------------------|
D|--------------------------------|
A|--------------------------------|
E|5---------------5---------------|

1:03

G|------------------------------------------------|
D|------------------------------------------------|
A|------------------------------------------------|
E|5---------------3---------------5---------------|

G|----------------------------------------------------------------|
D|----------------------------------------------------------------|
A|----------------------------------------------------------------|
E|3---------------3---------------3---------------3---------------|

G|----------------------------------------------------------------|
D|----------------------------------------------------------------|
A|----------------------------------------------------------------|
E|5---------------5---------------5---------------5---------------|

1:18

G|----------------------------------------------------------------|
D|----------------------------------------------------------------| x2
A|----------------------------------------------------------------|
E|5---------------5---------------5---------------5---------------|

G|--------------------------------|
D|--------------------------------|
A|--------------------------------|
E|5---------------5---------------|

1:32

G|------------------------------------------------|
D|------------------------------------------------|
A|------------------------------------------------|
E|5---------------3---------------5---------------|

G|----------------------------------------------------------------|
D|----------------------------------------------------------------|
A|----------------------------------------------------------------|
E|3---------------3---------------3---------------3---------------|

G|----------------------------------------------------------------|
D|----------------------------------------------------------------|
A|----------------------------------------------------------------|
E|5---------------5---------------5---------------5---------------|

1:48

G|----------------------------------------------------------------|
D|----------------------------------------------------------------|
A|----------------------------------------------------------------|
E|3-------3-------3-------3-------3-------3-------3-------3-------|

G|--------------------------------|
D|--------------------------------|
A|--------------------------------|
E|3-------3-------3-------3-------|

G|----------------------------------------------------------------|
D|----------------------------------------------------------------|
A|----------------------------------------------------------------|
E|5-------5-------5-------5-------5-------5-------5-------5-------|

2:01

G|----------------------------------------------------------------|
D|----------------------------------------------------------------| x2
A|----------------------------------------------------------------|
E|3-------3-------3-------3-------3-------3-------3-------3-------|

G|----------------------------------------------------------------|
D|----------------------------------------------------------------| x2
A|----------------------------------------------------------------|
E|5-------5-------5-------5-------5-------5-------5-------5-------|

2:23

G|----------------------------------------------------------------|
D|----------------------------------------------------------------| x2
A|----------------------------------------------------------------|
E|5---------------5---------------5---------------5---------------|

G|--------------------------------|
D|--------------------------------|
A|--------------------------------|
E|5---------------5---------------|

2:36

G|------------------------------------------------|
D|------------------------------------------------|
A|------------------------------------------------|
E|5---------------3---------------5---------------|

G|----------------------------------------------------------------|
D|----------------------------------------------------------------|
A|----------------------------------------------------------------|
E|3---------------3---------------3---------------3---------------|

G|----------------------------------------------------------------|
D|----------------------------------------------------------------|
A|----------------------------------------------------------------|
E|5---------------5---------------5---------------5---------------|

2:51

G|----------------------------------------------------------------|
D|----------------------------------------------------------------|
A|----------------------------------------------------------------|
E|3---------------3---------------3---------------3---------------|

G|--------------------------------|
D|--------------------------------|
A|--------------------------------|
E|3---------------3---------------|

G|----------------------------------------------------------------|
D|----------------------------------------------------------------|
A|----------------------------------------------------------------|
E|5---------------5---------------5---------------5---------------|

G|----------------------------------------------------------------|
D|----------------------------------------------------------------|
A|----------------------------------------------------------------|
E|5---------------5---------------5-------------------------------|
Suggest correction
Give kudos to tab author, rate the tab!
1 2 3 4 5
comments
print report bad tab
guest
You may want to rate the tab now too:
select rating
Wanna post a correction for this tab? Suggest correction