Oops, an error
Loading. Please wait.

Any Minute Now Bass Tab

420 views 1 this week
no commentswrite comment
1 2 3 4 5
1 last vote to show rating
add to favorites
launch autoscroll
font size
0
reset
guitar tuner
Autoscroll
slow
fast
+/-
esc
set tempo
stop
Help us to improve Ultimate-Guitar.com Take our survey!
×
Author
Difficulty
novice
The Sunshine Underground - Any Minute Now
taken from the album 'Nobody's Coming To Save You'

[0.00 - 0.44] - No bass 

[0.45 - 1.12] - Verse 1

G|-----14--------14--------14--------14---|
D|----------------------------------------|
A|-1212--12--1212--12--1212--12--1212--12-|
E|----------------------------------------| [x2]

G|------------------|
D|------------------|
A|-9999999999997777-|
E|------------------|

G|-----14--------14--------14--------14---|
D|----------------------------------------|
A|-1212--12--1212--12--1212--12--1212--12-|
E|----------------------------------------| [x3]

G|------------------|
D|------------------|
A|-9999999999997777-|
E|------------------|

[1.13 - 1.37] - Chorus

G|----------------------------------|
D|----------------------------------|
A|-55555555555555554444444444444447-|
E|----------------------------------|

G|----------------------------------|
D|----------------------------------|
A|-9999999999999991155555555555555--|
E|--------------------------------5~|

[1.38 - 2.05] - Verse 2

G|-----14--------14--------14--------14---|
D|----------------------------------------|
A|-1212--12--1212--12--1212--12--1212--12-|
E|----------------------------------------| [x2]

G|------------------|
D|------------------|
A|-9999999999997777-|
E|------------------|

G|-----14--------14--------14--------14---|
D|----------------------------------------|
A|-1212--12--1212--12--1212--12--1212--12-|
E|----------------------------------------| [x3]

G|------------------|
D|------------------|
A|-9999999999997777-|
E|------------------|

[2.06 - 2.38] - Chorus

G|----------------------------------|
D|----------------------------------|
A|-55555555555555554444444444444447-|
E|----------------------------------|

G|----------------------------------|
D|----------------------------------|
A|-9999999999999991155555555555555--|
E|----------------------------------|

G|----------------------------------|
D|----------------------------------|
A|-55555555555555554444444444444447-|
E|----------------------------------|

G|----------------------------------|
D|----------------------------------|
A|-9999999999999991155555555555555--|
E|--------------------------------5~|


[2.46 - 3.14] - Solo

G|-----14--------14--------14--------14---|
D|----------------------------------------|
A|-1212--12--1212--12--1212--12--1212--12-|
E|----------------------------------------| [x2]

G|------------------|
D|------------------|
A|-9999999999997777-|
E|------------------|

G|-----14--------14--------14--------14---|
D|----------------------------------------|
A|-1212--12--1212--12--1212--12--1212--12-|
E|----------------------------------------| [x3]

G|------------------|
D|------------------|
A|-9999999999997777-|
E|------------------|

Outro [3.15 - 3.35]

G|----------------------------------|
D|----------------------------------|
A|-55555555555555554444444444444447-|
E|----------------------------------|

G|----------------------------------|
D|----------------------------------|
A|-9999999999999991155555555555555--|
E|--------------------------------5~|
Suggest correction
Give kudos to tab author, rate the tab!
1 2 3 4 5
comments
print report bad tab
guest
You may want to rate the tab now too:
select rating
Wanna post a correction for this tab? Suggest correction