Oops, an error
Loading. Please wait.

Commercial Breakdown Bass Tab

version 2
version 2

Whole song

Interactive

290 views 1 this week
1 commentread comment
1 2 3 4 5
2 more votes to show rating
add to favorites
launch autoscroll
font size
0
reset
guitar tuner
Autoscroll
slow
fast
+/-
esc
set tempo
stop
Help us to improve Ultimate-Guitar.com Take our survey!
×
Author
Difficulty
novice
                             Commercial Breakdown                               


                                                            Sunshine Underground
Bass (mediator or not)



G||-------|-------|-------|
D||-------|-------|-------|
A||-------|-------|-------|
E||-------|-------|-------|


  E  E   E   E  E   E   E  Q    E  E  E  E  E  E  E   
-----------------------------------------------------|
-----------------------------------------------------|
-----------------------------------------------------|
--5--5--(x)--5--5--(x)--5--5----5--5--7--7--7--5--5--|


  E  E   E   E  E   E   E  Q    E  E  E  E  E  E  E   
-----------------------------------------------------|
-----------------------------------------------------|
--4--4--(x)--4--4--(x)--4--4----7--7--7--7--4--4--4--|
-----------------------------------------------------|


  E  E   E   E  Q    E  E  E  E  E  E  E  E  E  E   
---------------------------------------------------|
---------------------------------------------------|
--5--5--(x)--5--5----5--7--7--7--7--5--5--5--4--4--|
---------------------------------------------------|


  E  E   E   E  E   E   E  E   E   E  Q    Q    Q     
-----------------------------------------------------|
-----------------------------------------------------|
-----------------------------------------------------|
--5--5--(x)--5--5--(x)--5--5--(x)--5--5----5----5----|


  E  E  E  E  E  E  E  E  E  E  E  E  E  E  E  E   
--------------------------------------------------|
--------------------------------------------------|
--0--0--2--0--0--0--2--0--0--0--2--0--0--0--2--0--|
--------------------------------------------------|


  E  E  E  E  E  E  E  E  E  E  E  E  E  E  E  E   
--------------------------------------------------|
--------------------------------------------------|
--4--4--4--0--4--4--4--0--4--4--4--0--4--4--4--0--|
--------------------------------------------------|


  E  E  E  E  E  E  E  E  E  E  E  E  E  E  Q     
-------------------------------------------------|
-------------------------------------------------|
--5--5--5--0--5--5--5--0--5--5--5--0--5--5--5----|
-------------------------------------------------|


  E  E  E  E  E  E  E   Q    E  E  E  E  E  E  E   
--------------------------------------------------|
--------------------------------------------------|
--0--0--2--0--0--0--2S--7----7--7--5--5--5--4--4--|
--------------------------------------------------|


  E  E   E   E  E   E   E  Q    E  E  E  E  E  E  E   
-----------------------------------------------------|
-----------------------------------------------------|
-----------------------------------------------------|
--5--5--(x)--5--5--(x)--5--5----5--5--7--7--7--5--5--|


  E  E   E   E  E   E   E  Q    E  E  E  E  E  E  E   
-----------------------------------------------------|
-----------------------------------------------------|
--4--4--(x)--4--4--(x)--4--4----7--7--7--7--4--4--4--|
-----------------------------------------------------|


  E  E   E   E  Q    E  E  E  E  E  E  E  E  E  E   
---------------------------------------------------|
---------------------------------------------------|
--5--5--(x)--5--5----5--7--7--7--7--5--5--5--4--4--|
---------------------------------------------------|


  E  E   E   E  E   E   E  E   E   E  Q    Q    Q     
-----------------------------------------------------|
-----------------------------------------------------|
-----------------------------------------------------|
--5--5--(x)--5--5--(x)--5--5--(x)--5--5----5----5----|


  W                H.            Q        W                W                 
---------------------------------------|------------------------------------|
---------------------------------------|------------------------------------|
--------------------------------/9\----|--4----------------L----------------|
--2----------------L-------------------|------------------------------------|


  W                W                 
------------------------------------|
------------------------------------|
--5----------------L----------------|
------------------------------------|


  E  Q    E  Q    E  Q    E  Q    Q    Q      
---------------------------------------------|
---------------------------------------------|
---------------------------------------------|
--5--5----5--5----5--5----5--5----5----4\----|


  E  Q    E  Q    E  Q    E  Q    Q    Q     
--------------------------------------------|
--------------------------------------------|
--------------------------------------------|
--2--2----2--2----2--2----2--2----2----2----|


  E  Q    E  Q    E  Q    E  Q    Q    Q     
--------------------------------------------|
--------------------------------------------|
--4--4----4--4----4--4----4--4----4----4----|
--------------------------------------------|


  E  Q    E  Q    E  Q    E  Q    Q    Q     
--------------------------------------------|
--------------------------------------------|
--5--5----5--5----5--5----5--5----5----5----|
--------------------------------------------|


  E  Q    E  Q    E  Q    E  Q    Q    Q     
--------------------------------------------|
--------------------------------------------|
--------------------------------------------|
--5--5----5--5----5--5----5--5----5----5----|


  E  E  E  E  E  E  E  E  E  E  E  E  E  E  E  E   
--------------------------------------------------|
--------------------------------------------------|
--0--0--2--0--0--0--2--0--0--0--2--0--0--0--2--0--|
--------------------------------------------------|


  E  E  E  E  E  E  E  E  E  E  E  E  E  E  E  E   
--------------------------------------------------|
--------------------------------------------------|
--4--4--4--0--4--4--4--0--4--4--4--0--4--4--4--0--|
--------------------------------------------------|


  E  E  E  E  E  E  E  E  E  E  E  E  E  E  Q     
-------------------------------------------------|
-------------------------------------------------|
--5--5--5--0--5--5--5--0--5--5--5--0--5--5--5----|
-------------------------------------------------|


  E  E  E  E  E  E  E   Q    E  E  E  E  E  E  E   
--------------------------------------------------|
--------------------------------------------------|
--0--0--2--0--0--0--2S--7----7--7--5--5--5--4--4--|
--------------------------------------------------|


  E  E   E   E  E   E   E  Q    E  E  E  E  E  E  E   
-----------------------------------------------------|
-----------------------------------------------------|
-----------------------------------------------------|
--5--5--(x)--5--5--(x)--5--5----5--5--7--7--7--5--5--|


  E  E   E   E  E   E   E  Q    E  E  E  E  E  E  E   
-----------------------------------------------------|
-----------------------------------------------------|
--4--4--(x)--4--4--(x)--4--4----7--7--7--7--4--4--4--|
-----------------------------------------------------|


  E  E   E   E  Q    E  E  E  E  E  E  E  E  E  E   
---------------------------------------------------|
---------------------------------------------------|
--5--5--(x)--5--5----5--7--7--7--7--5--5--5--4--4--|
---------------------------------------------------|


  E  E   E   E  E   E   E  E   E   E  Q    Q    Q     
-----------------------------------------------------|
-----------------------------------------------------|
-----------------------------------------------------|
--5--5--(x)--5--5--(x)--5--5--(x)--5--5----5----5----|


  W                H.            Q        W                W                 
---------------------------------------|------------------------------------|
---------------------------------------|------------------------------------|
--------------------------------/9\----|--4----------------L----------------|
--2----------------L-------------------|------------------------------------|


  W.               Q    Q     
-----------------------------|
-----------------------------|
--5----------------5----5----|
-----------------------------|


   E    E    E    E    E    E    E    E    E    E    E    E    E    E    Q      
-------------------------------------------------------------------------------|
--(7)--(7)--(7)--(7)--(7)--(7)--(7)--(7)--(7)--(7)--(7)--(7)--(7)--(7)--(7)----|
-------------------------------------------------------------------------------|
-------------------------------------------------------------------------------|


  E  Q    E  Q    E  Q    E  Q    Q    Q     
--------------------------------------------|
--------------------------------------------|
--------------------------------------------|
--2--2----2--2----2--2----2--2----2----2----|


  E  Q    E  Q    E  Q    E  Q    Q    Q     
--------------------------------------------|
--------------------------------------------|
--4--4----4--4----4--4----4--4----4----4----|
--------------------------------------------|


  E  Q    E  Q    E  Q    E  Q    Q    Q     
--------------------------------------------|
--------------------------------------------|
--5--5----5--5----5--5----5--5----5----5----|
--------------------------------------------|


  E  Q    E  Q    E  Q    E  Q    Q    Q     
--------------------------------------------|
--------------------------------------------|
--------------------------------------------|
--5--5----5--5----5--5----5--5----5----5----|


  E  E  E  E  E  E  E  E  E  E  E  E  E  E  E  E    
---------------------------------------------------|
---------------------------------------------------|
---------------------------------------------------|
--5--5--5--5--5--5--5--5--5--5--5--5--5--5--5--5S--|


  E  E  E  E  E  E  E  E  E  E  E  E  E  E  E  E   
--------------------------------------------------|
--------------------------------------------------|
--------------------------------------------------|
--9--9--9--9--9--9--9--9--9--9--9--9--9--9--9--9--|


   E   E   E   E   E   E   E   E   E   E   E   E   E   E   E   E    
-------------------------------------------------------------------|
-------------------------------------------------------------------|
-------------------------------------------------------------------|
--10--10--10--10--10--10--10--10--10--10--10--10--10--10--10--10S--|


  E  E  E  E  E  E  E  E  E  E  E  E  E  E  E  E   
--------------------------------------------------|
--------------------------------------------------|
--------------------------------------------------|
--5--5--5--5--5--5--5--5--5--5--5--5--5--5--5--5--|


  E  E  E  E  E  E  E  E  E  E  E  E  E  E  E  E    
---------------------------------------------------|
---------------------------------------------------|
---------------------------------------------------|
--5--5--5--5--5--5--5--5--5--5--5--5--5--5--5--5S--|


  E  E  E  E  E  E  E  E  E  E  E  E  E  E  E  E   
--------------------------------------------------|
--------------------------------------------------|
--------------------------------------------------|
--9--9--9--9--9--9--9--9--9--9--9--9--9--9--9--9--|


   E   E   E   E   E   E   E   E   E   E   E   E   E   E   E   E    
-------------------------------------------------------------------|
-------------------------------------------------------------------|
-------------------------------------------------------------------|
--10--10--10--10--10--10--10--10--10--10--10--10--10--10--10--10S--|


  E  Q    E  Q    E  Q    E  Q    Q    Q                             
--------------------------------------------|-------|-------|-------|
--------------------------------------------|-------|-------|-------|
--------------------------------------------|-------|-------|-------|
--5--5----5--5----5--5----5--5----5----5----|-------|-------|-------|


   E   E   E   E   E   E   E   E   E   E   E   E   E   E   E   E   
------------------------------------------------------------------|
------------------------------------------------------------------|
--12--12--12--12--12--12--12--12--12--12--12--12--12--12--12--12--|
------------------------------------------------------------------|


   E   E   E   E   E   E   E   E   E   E   E   E   E   E   E   E   
------------------------------------------------------------------|
------------------------------------------------------------------|
--16--16--16--16--16--16--16--16--16--16--16--16--16--16--16--16--|
------------------------------------------------------------------|


   E   E   E   E   E   E   E   E   E   E   E   E   E   E   E   E   
------------------------------------------------------------------|
------------------------------------------------------------------|
--17--17--17--17--17--17--17--17--17--17--17--17--17--17--17--17--|
------------------------------------------------------------------|


   E   E   E   E   E   E   E   E   E   E   E   E   E   E   E   E   
------------------------------------------------------------------|
------------------------------------------------------------------|
--19--19--19--19--19--19--19--19--19--19--19--19--17--17--17--16--|
------------------------------------------------------------------|


  E  Q    E  Q    E  Q    E  Q    Q    Q     
--------------------------------------------|
--------------------------------------------|
--0--0----0--0----0--0----0--0----0----0----|
--------------------------------------------|


  E  Q    E  Q    E  Q    E  Q    Q    Q     
--------------------------------------------|
--------------------------------------------|
--4--4----4--4----4--4----4--4----4----4----|
--------------------------------------------|


  E  Q    E  Q    E  Q    E  Q    Q    Q     
--------------------------------------------|
--------------------------------------------|
--5--5----5--5----5--5----5--5----5----5----|
--------------------------------------------|


  E  Q    E  Q    E  E   E  E  E  E  E  E  E   E    
---------------------------------------------------|
---------------------------------------------------|
--0--0----0--0----0--0S--7--7--7--7--7--7--7--(7)--|
---------------------------------------------------|


  E  E  E  E  E  E  E  E  E  E  E  E  E  E  E  E    
---------------------------------------------------|
---------------------------------------------------|
---------------------------------------------------|
--5--5--5--5--5--5--5--5--5--5--5--5--5--5--5--5S--|


  E  E  E  E  E  E  E  E  E  E  E  E  E  E  E  E   
--------------------------------------------------|
--------------------------------------------------|
--------------------------------------------------|
--9--9--9--9--9--9--9--9--9--9--9--9--9--9--9--9--|


   E   E   E   E   E   E   E   E   E   E   E   E   E   E   E   E    
-------------------------------------------------------------------|
-------------------------------------------------------------------|
-------------------------------------------------------------------|
--10--10--10--10--10--10--10--10--10--10--10--10--10--10--10--10S--|


  E  Q    E  Q    E  Q    E  Q    Q    Q      
--------------------------------------------||
--------------------------------------------||
--------------------------------------------||
--5--5----5--5----5--5----5--5----5----5----||




Duration Legend
---------------
W - whole
H - half
Q - quarter
E - 8th
S - 16th
T - 32nd
X - 64th
. - note dotted
|-n-|  - n-tuplets


Tablature Legend
----------------
L - tied note
x - dead note
g - grace note
(n) - ghost note
> - accentuded note
NH - natural harmonic
AH - artificial harmonic
TH - tapped harmonic
SH - semi harmonic
PH - pitch harmonic
h - hammer on
p - pull off
b - bend
br - bendRelease
pb - preBend
pbr - preBendRelease
brb - bendReleaseBend
\n/ - tremolo bar dip
\n - tremolo bar dive
-/n - tremolo bar Release up
/n\ - tremolo bar inverted dip
/n - tremolo bar return
-\n - tremolo bar Release down
S - shift slide
s - legato slide
/ -  slide into from below or out of upwards
\ -  slide into from above or out of downwards
~ - vibrato
W - wide vibrato
tr - trill
TP - tremolo picking
T - tapping
S - slap
P - pop
< - fade in
^ - brush up
v - brush down
Suggest correction
Give kudos to tab author, rate the tab!
1 2 3 4 5
comments
print report bad tab
1 comment total.
0 reply
hillsy945 136 Nov 29, 2009 07:02 AM

Superb! 99% accurate I would say.

Now I wish someone would just tab the dama lead solo!

guest
You may want to rate the tab now too:
select rating
Wanna post a correction for this tab? Suggest correction