Oops, an error
Loading. Please wait.

I Aint Losing Any Sleep Tab

version 1
version 1

Whole song

Interactive

450 views 3 this week
no commentswrite comment
1 2 3 4 5
please rate
add to favorites
launch autoscroll
font size
0
reset
how to read this tab
guitar tuner
Autoscroll
slow
fast
+/-
esc
set tempo
stop
Help us to improve Ultimate-Guitar.com Take our survey!
×
Author
easy song to play XD

Intro.

Gtr.1

e|-------------------------------|
 |-------------------------------|
 |-9-X8--7-X1---6-X9--5-X9--6-X9-|
 |-7-----7------7-----7-----7----|
 |-------------------------------|
E|-------------------------------|

Carry on until...

Gtr.2 enters

e|--------------------------------|
 |--------------------------------|
 |--------------------------------|
 |--------------------------------|
 |--------------------------------|
E|-12-X9--10-X1--9-X9--8-X9--9-9X-|


e|-------------------------------|
 |-------------------------------|
 |-2-2-5---------2-2-5-----------|
 |-------------------------------|
 |-------------------------------|
E|-------------------------------|

Gtr.1 then enters again with the intro..

e|-------------------------------|
 |-------------------------------|
 |-9-X8--7-X1---6-X9--5-X9--6-X9-|
 |-7-----7------7-----7-----7----|
 |-------------------------------|
E|-------------------------------|


Chorus.

Gtr.1

e|---------------------------------------------------------------------|
 |---------------------------------------------------------------------|
 |-7777777777777777-5555555555555555-9999999999999999-7777777777777777-|
 |-7777777777777777-5555555555555555-9999999999999999-7777777777777777-|
 |-5555555555555555-3333333333333333-7777777777777777-5555555555555555-|
E|-5555555555555555-3333333333333333-7777777777777777-5555555555555555-|


Gtr.2

e|------------------------------------------------------------------|
 |------------------------------------------------------------------|
 |-77xx77xx77xx77xx55xx55xx55xx55xx99xx99xx99xx99xx77xx77xx77xx77xx-|
 |-77xx77xx77xx77xx55xx55xx55xx55xx99xx99xx99xx99xx77xx77xx77xx77xx-|
 |-55xx55xx55xx55xx33xx33xx33xx33xx77xx77xx77xx77xx55xx55xx55xx55xx-|
E|-55xx55xx55xx55xx33xx33xx33xx33xx77xx77xx77xx77xx55xx55xx55xx55xx-|

Gtr.1

e|-----------------------------------|
 |-----------------------------------|
 |-7777777777777777-5555555555555555-|
 |-7777777777777777-5555555555555555-|
 |-5555555555555555-3333333333333333-|
E|-----------------------------------|

Gtr.2

e|-----------------------------------|
 |-----------------------------------|
 |-77xx77xx77xx77xx55xx55xx55xx55xx--|
 |-77xx77xx77xx77xx55xx55xx55xx55xx--|
 |-55xx55xx55xx55xx33xx33xx33xx33xx--|
E|-----------------------------------|

Verse.

Gtr.1

e|---------------------------------------------------|
 |---------------------------------------------------|
 |---------------------------------------------------|
 |-2-5-9-5-7----2-5-9-5-5----2-5-8-5-7----2-5-9-5-5--|
 |---------------------------------------------------|
E|---------------------------------------------------|


Gtr.2 enters.

e|-------------------------------|
 |-------------------------------|
 |-2-2-5---------2-2-5-----------|
 |-------------------------------|
 |-------------------------------|
E|-------------------------------|


Chorus.


Solo
Gtr.1

e|--------------5---4/5---4/5-----------------|
 |--------------5---4/5---4/5-----------------|
 |--------------------------------------------|
 |--------------------------------------------|
 |--------------------------------------------|
E|-1///////17---------------------------------|


Gtr. 2

e|--------------------------------------------|
 |--------------------------------------------|
 |--------------------------------------------|
 |---------------7----7----7----7----7--------|
 |---------------7----7----7----7----7--------|
E|---------------5----5----5----5----5--------|

Gtr. 1

e|------------5---4/5---4/5-------------------|
 |------------5---4/5---4/5-------------------|
 |--------------------------------------------|
 |--------------------------------------------|
 |--------------------------------------------|
E|-1/14---------------------------------------|

Gtr. 2

e|-------------------------------------------|
 |-------------------------------------------|
 |-------------------------------------------|
 |-101010101010101010------------------------|
 |-101010101010101010------------------------|
E|-8--8-8-8-8-8-8-8-8------------------------|

Repaeat the above solo.

Then..

e|----------------------------------------------------------------------|
 |----------------------------------------------------------------------|
 |-99999999999999--77-666666666666-555-666666666666-555-77777777777-555-|
 |-77777777777777--77-777777777777-777-777777777777-777-77777777777-777-|
 |----------------------------------------------------------------------|
E|----------------------------------------------------------------------|

Enjoy!
Suggest correction
Give kudos to tab author, rate the tab!
1 2 3 4 5
comments
print report bad tab
guest
You may want to rate the tab now too:
select rating
Wanna post a correction for this tab? Suggest correction