Oops, an error
Loading. Please wait.

Put You In Your Place Tab

4,090 views 24 this week
no commentswrite comment
1 2 3 4 5
accurate
x 5
add to favorites
launch autoscroll
font size
0
reset
how to read this tab
guitar tuner
Tab Pro tools
  • play this tab
  • loop segment
  • change instrument
  • show fretboard
  • metronome
×
Best way to learn
"Put You In Your Place"
Autoscroll
slow
fast
+/-
esc
set tempo
stop
Contributor
Difficulty
novice
Brilliant Song From An Amazin Album, Thought I Would Try And Attempt To Tab It On My Own

                                                                       
Riff One                                                                 x3

e|---------------------------------------------------------------------------|
B|---------------------------------------------------------------------------|
G|--7-7--8-8--9-9--x-x--9-9--x-x--9-9-9--------------------------------------|
D|--x-x--x-x--x-x--x-x--x-x--x-x--x-x-x--------------------------------------|
A|--5-5--6-6--7-7--x-x--7-7--x-x--7-7-7--------------------------------------|
E|--x-x--x-x--x-x--x-x--x-x--x-x--x-x-x--------------------------------------|

Riff Two

e|---------------------------------------------------------------------------|
B|---------------------------------------------------------------------------|
G|--7-7--8-8--9-9--14-14-14-14--x-x--14-14-14-14-----------------------------|
D|--x-x--x-x--x-x--14-14-14-14--x-x--14-14-14-14-----------------------------|
A|--5-5--6-6--7-7--12-12-12-12--x-x--12-12-12-12-----------------------------|
E|--x-x--x-x--x-x--x--x--x--x---x-x--x--x--x--x------------------------------|

Riff Three
e|---------------------------------------------------------------------------|
B|---------------------------------------------------------------------------|
G|---------x-x---x--x--x-x--14--x--14----------------------------------------|
D|--14-14--x-x--14-14--x-x--14--x--14----------------------------------------|
A|--14-14--x-x--14-14--x-x--12--x--12----------------------------------------|
E|--x--x---x-x--x--x---x-x--x---x--x-----------------------------------------|

Riff One x3
Riff Two
Riff Three x 3
Riff Two
Riff One x 3

Its My First Tab So Rate High Plz!
comments
print report bad tab
I want to post or [tab]
guest
You may want to rate the tab now too:
select rating
Please do not post tabs as comments. Select "correction" instead!