Oops, an error
Loading. Please wait.

The Way It Is bass

50 views 1 this week
no commentswrite comment
1 2 3 4 5
3 more votes to show rating
add to favorites
×
Save as Personal and add changes to this tab that will be seen only by you. Learn more ›
×
You can save this tab as Personal to edit and correct it or add notes. All changes will be seen only by you. Learn more »
launch autoscroll
font size
0
reset
guitar tuner
edit
Autoscroll
slow
fast
+/-
esc
set tempo
stop
Author
Difficulty
-------------------------------------------------------------------------------
                             They Way It Is - The Sunshine Underground
-------------------------------------------------------------------------------
Tabbed by: Mahmoud Ahmed
E-mail: 

Tuning: STANDARD
Notes: Played with slight overdrive and distortion 

G|-----------------------|
D|-----------------------|
A|---7---7-9-5-----------|  X2
E|--------------7-7-7-7--|

Then slightly changes on 3rd time to..
G|-----------------------|
D|-----------------------|
A|--57---7-9-5-----------|
E|--------------7-7-7-7--|
 
Then goes
G|---------------------------------------------------------------------------|
D|----------99-77-55-4-------------------------------------------------------|
A|--7---7-9------------------------------------------------------------------|
E|---------------------------------------------------------------------------|

Repeat all above 4X then there is a pause where vocals come in
Then repeat 2X where there is another pause
Then repeat 2X again. After slight pause play this (this bit i'm not sure about)
G|-------------------------------------------------------------------------------------------|
D|-------------------------------------------------------------------------------------------|
A|------------------------7777777777777777-9999999999999999-5555555555555555-0000000000000000| X2
E|-0~--------0~------------------------------------------------------------------------------|
 Then finish with 

G|---------------------------------------------------------------------------|
D|---------------------------------------------------------------------------|
A|---------------------------------------------------------------------------|
E|-00000000000000000000000000000000000000------------------------------------|
 Then this main riff happens again

G|-----------------------|
D|-----------------------|
A|---7---7-9-5-----------|  X2
E|--------------7-7-7-7--|

Then slightly changes on 3rd time to..
G|-----------------------|
D|-----------------------|
A|--57---7-9-5-----------|
E|--------------7-7-7-7--|
 
Then goes
G|---------------------------------------------------------------------------|
D|----------99-77-55-4-------------------------------------------------------|
A|--7---7-9------------------------------------------------------------------|
E|---------------------------------------------------------------------------|
Repeat that main riff twice, it then changes to something like 
(there is a lot of distortion/overdrive so it's hard to tell) note that its 10 not 1 0

G|---------------------------------------------------------------------------|
D|---------------------------------------------------------------------------|
A|---7-7-9p10-12-121212-10---------------------------------------------------| X8
E|------------------------12-------------------------------------------------|
 Then the main riff returns but for the first bit, it sounds like slap bass.
G|-----------------------|
D|-----------------------|
A|---7---7-9-5-----------|  X2              (This whole bit is slap bass)
E|--------------7-7-7-7--|

Then slightly changes on 3rd time to..
G|-----------------------|
D|-----------------------|                  (This whole bit is slap bass and note the mute X's on 5 and 7)
A|--xxx---7-9-5----------|
E|--------------7-7-7-7--|
 
Then goes
G|---------------------------------------------------------------------------|
D|----------99-77-55-4-------------------------------------------------------|
A|--7---7-9------------------------------------------------------------------|
E|---------------------------------------------------------------------------|

Returns to normal picking for the rest of the song until the end

G|-----------------------|
D|-----------------------|
A|---7---7-9-5-----------|  X2
E|--------------7-7-7-7--|

Then slightly changes on 3rd time to..
G|-----------------------|
D|-----------------------|
A|--57---7-9-5-----------|
E|--------------7-7-7-7--|
 
Then goes
G|---------------------------------------------------------------------------|
D|----------99-77-55-4-------------------------------------------------------|
A|--7---7-9------------------------------------------------------------------|
E|---------------------------------------------------------------------------|



| /  slide up
| \  slide down
| h  hammer-on
| p  pull-off
| ~  vibrato
| +  harmonic
| x  Mute note
===============================================================================
Suggest correction
Creating personal tab
Creating personal tab
You can edit any tab online and save it as your Personal.

You can edit, replace or remove any tab part or add personal notes – all changes will be seen only by you.

Personal tabs can be accessed anytime from any device, even offline.
Learn more »
Give kudos to tab author, rate the tab!
1 2 3 4 5
comments
print report bad tab
guest
You may want to rate the tab now too:
select rating
Wanna post a correction for this tab? Suggest correction