Oops, an error
Loading. Please wait.

Love Is Like An Itching In My Heart bass

version 1
version 1

Whole song

Interactive

13 views 1 this week
no commentswrite comment
1 2 3 4 5
3 more votes to show rating
add to favorites
×
Save as Personal and add changes to this tab that will be seen only by you. Learn more ›
×
You can save this tab as Personal to edit and correct it or add notes. All changes will be seen only by you. Learn more »
launch autoscroll
font size
0
reset
guitar tuner
edit
Autoscroll
slow
fast
+/-
esc
set tempo
stop
Love Is Like An Itching In My Heart
A Holland-Dozier-Holland song recorded and released by The Supremes in 1966 
that failed to chart in UK. Reached #9 US Billboard charts.
Tab by bass50611. Welcome to my tab of this Motown Classic that isn’t exact
But in the style of James Jamerson.

Intro: 
G|------------------------------------------------------|
D|-3--3--3--3---3--3------0-2-3--3--3--3---3--3-----0-2-|
A|---------3--3------3--3-------------3--3------3--3----|
E|------------------------------------------------------|

Verse 1:                                   (Play This Bit x3)
G|------------------------------------------------------|
D|-3--3--3--3---3--3------0-2-3--3--3--3---3--3-----0-2-|
A|---------3--3------3--3-------------3--3------3--3----|
E|------------------------------------------------------|

G|---------------------------------------|
D|-3--3--3--3---3--3------0-2-3--3--3--3-|
A|---------3--3------3--3----------------|
E|---------------------------------------|

Chorus:
G|-------------------------------------------------|
D|-------------------------------------------------|
A|-3--3--3--3-4-5--5--5--3--1--1--1--1-------------|
E|----------------------------------1---1--1--1--1-|

G|-------------------------|
D|-------------------------|
A|-3--3--3--3-2-1--1--1--1-|
E|---------------------1---|

Bridge:
G|------------------------------------------------------|
D|-3--3--3--3---3--3------0-2-3--3--3--3---3--3-----0-2-|
A|---------3--3------3--3-------------3--3------3--3----|
E|------------------------------------------------------|

Verse 2:                                   (Play This Bit x3)
G|------------------------------------------------------|
D|-3--3--3--3---3--3------0-2-3--3--3--3---3--3-----0-2-|
A|---------3--3------3--3-------------3--3------3--3----|
E|------------------------------------------------------|

G|---------------------------------------|
D|-3--3--3--3---3--3------0-2-3--3--3--3-|
A|---------3--3------3--3----------------|
E|---------------------------------------|

Chorus:
G|--------------------------------------------------|
D|--------------------------------------------------|
A|-3--3--3--3-4-5--5--5--3--1--1--1--1--------------|
E|----------------------------------1----1--1--1--1-|

G|-------------------------|
D|-------------------------|
A|-3--3--3--3-2-1--1--1--1-|
E|---------------------1---|

Sax Interlude                              (Play This Bit x2):
G|------------------------------------------------------|
D|-3--3--3--3---3--3------0-2-3--3--3--3---3--3-----0-2-|
A|---------3--3------3--3-------------3--3------3--3----|
E|------------------------------------------------------|

Verse 3:                                   (Play This Bit x2)
G|------------------------------------------------------|
D|-3--3--3--3---3--3------0-2-3--3--3--3---3--3-----0-2-|
A|---------3--3------3--3-------------3--3------3--3----|
E|------------------------------------------------------|

G|---------------------------------------|
D|-3--3--3--3---3--3------0-2-3--3--3--3-|
A|---------3--3------3--3----------------|
E|---------------------------------------|

Chorus:
G|--------------------------------------------------|
D|--------------------------------------------------|
A|-3--3--3--3-4-5--5--5--3--1--1--1--1--------------|
E|----------------------------------1----1--1--1--1-|

G|-------------------------|
D|-------------------------|
A|-3--3--3--3-2-1--1--1--1-|
E|---------------------1---|

Bridge:                                   (Play This x2)
G|------------------------------------------------------|
D|-3--3--3--3---3--3------0-2-3--3--3--3---3--3-----0-2-|
A|---------3--3------3--3-------------3--3------3--3----|
E|------------------------------------------------------|

Verse 4 / Outro:                           (Repeat To Fade)
G|------------------------------------------------------|
D|-3--3--3--3---3--3------0-2-3--3--3--3---3--3-----0-2-|
A|---------3--3------3--3-------------3--3------3--3----|
E|------------------------------------------------------|



            
            
Suggest correction
Creating personal tab
Creating personal tab
You can edit any tab online and save it as your Personal.

You can edit, replace or remove any tab part or add personal notes – all changes will be seen only by you.

Personal tabs can be accessed anytime from any device, even offline.
Learn more »
Give kudos to tab author, rate the tab!
1 2 3 4 5
comments
print report bad tab
guest
You may want to rate the tab now too:
select rating
Wanna post a correction for this tab? Suggest correction