Oops, an error
Loading. Please wait.

Wipe Out Bass Tab

version 1
version 1

Whole song

26,093 views 69 this week
3 commentsread comments
1 2 3 4 5
x 9
add to favorites
launch autoscroll
font size
0
reset
guitar tuner
×
Best way to learn
"Wipe Out"
Autoscroll
slow
fast
+/-
esc
set tempo
stop
[Intro]
G|-------------------------------------------------------------|
D|-------------------------------------------------------------|
A|-2/3-3-2-3-3-3-3-2-3-3-3-------------------------------------|
E|-------------------------------------------------------------|

[Chorus]
G|-------------------------------------------------------------|
D|-------------------------------------------------------------|
A|-3-3-3--1-------1-2-3----------------------------------------| 4x
E|-----------3-3-----------------------------------------------|

G|-------------------------------------------------------------|
D|-1-2-3--3-3-1------------------------------------------------|
A|-----------------3-3-----------------------------------------| 2x
E|-------------------------------------------------------------|

G|-------------------------------------------------------------|
D|-------------------------------------------------------------|
A|-1-2-3--3-3--1-----------------------------------------------| 2x
E|----------------3-3------------------------------------------|

G|------------------------------------------------------------|
D|-3-4-5--5-5-3-----5-----------------------------------------|
A|--------------5-5-------------------------------------------|
E|------------------------------------------------------------|

G|-------------------------------------------------------------|
D|-3-3--1-----3------------------------------------------------|
A|--------3-3--------------------------------------------------|
E|-------------------------------------------------------------|

G|-------------------------------------------------------------|
D|-------------------------------------------------------------|
A|-3-3-3--1-------3-1------------------------------------------|
E|-----------3-3-------3-3-3-3-3-3-3-3-------------------------|

(Drum Solo)
G|-------------------------------------------------------------|
D|-------3--------3--------------------------------------------|
A|-3--3-----3--------3-----------------------------------------|
E|-------------3-----------------------------------------------|


************************************

| /  Slide up

************************************
Suggest correction
comments
print report bad tab
3 comments total.
-1 reply
saturns_bassman 789 Sep 26, 2004 08:00 PM

wrong as hell!!!!!!!!!!!!!!!!!!!

0 reply
eddienolan89 75 Jul 24, 2009 06:41 AM

am this tab is perfect!cheers!

0 reply
badger10 20 Nov 05, 2010 07:27 PM

the intervals are right but if ytou watch a video its in the wrong key.

guest
You may want to rate the tab now too:
select rating
Wanna post a correction for this tab? Suggest correction