Oops, an error
Loading. Please wait.

Wipe Out tab

version 5
16,613 views 15 this week
6 commentsread comments
1 2 3 4 5
x 11
add to favorites
×
Save as Personal and add changes to this tab that will be seen only by you. Learn more ›
×
You can save this tab as Personal to edit and correct it or add notes. All changes will be seen only by you. Learn more »
launch autoscroll
font size
0
reset
how to read this tab
guitar tuner
edit
Autoscroll
slow
fast
+/-
esc
set tempo
stop
Author
Difficulty
intermediate
-------------------------------------------------------------------------------
                             Wipe Out - The Sufaris
-------------------------------------------------------------------------------
Tabbed by:JoRdAn WoLf
Email:skateboarder6732@cs.com

Tuning:standard


[verse]
e|---------------------------------------------------------------------------|
B|---------------------------------------------------------------------------|
G|-------------------------------------------------------------------5-6-7-7-|
D|---5-6-7-7-7-5-----5-6-7-7-7-5-----5-6-7-7-7-5-----5-6-7-7-7-5-------------|
A|-7-------------7-7-------------7-7-------------7-7-------------7-7---------|
E|---------------------------------------------------------------------------|

e|---------------------------------------------------------------------------|
B|---------------------------------------------------------------------------|
G|-7-5----5-6-7-7-7--------------------------------------7-8-9-9-9-7--9--7-7-|
D|----7-7-----------7-7--5-6-7-7-7-5-----5-6-7-7-7-5-----------------9-------|
A|-----------------------------------7-7-------------7-7---------------------|
E|---------------------------------------------------------------------------|


                                               [chorus]
e|------------------------------------------|--------------------------------|
B|------------------------------------------|--------------------------------|
G|-5---7------------------------------------|-------------10-----------12--10|
D|---7----5-6-7-7-7-5-----5-6-7-7-7-5-------|-10----10----10----10-----12--10|
A|--------------------7-7-------------7-7---|-10----10----8-----10-----10---8|
E|------------------------------------------|-8-----8-----------8------------|


              [solo]
e|------|-8-8-8-8-8--8-8-8-8-11--8-8-8-8-11--8-8-8-8-11---1-1-1-1-4-1-1-1-1-4|
B|------|-8-8-8-8-11-8-8-8-8-8---8-8-8-8-8---8-8-8-8-8----1-1-1-1-1-1-1-1-1-1|
G|------|--------------------------------------------------------------------|
D|-10---|--------------------------------------------------------------------|
A|-10---|--------------------------------------------------------------------|
E|-8----|--------------------------------------------------------------------|

e|-8-8-8-8-11--8-8-8-8-11--3-3-3-3-5--1-1-1-1-4--8-8-8-8-11--8-8-8-8-11------|
B|-8-8-8-8-8---8-8-8-8-8---3-3-3-3-3--1-1-1-1-1--8-8-8-8-8---8-8-8-8-8-------|
G|---------------------------------------------------------------------------|
D|---------------------------------------------------------------------------|
A|---------------------------------------------------------------------------|
E|---------------------------------------------------------------------------|

then bck to chords and do it all over again and end on chorus before the solo



*************************************

| /  slide up
| \  slide down
| h  hammer-on
| p  pull-off
| ~  vibrato
| +  harmonic
| x  Mute note

*************************************

            
            
Suggest correction
Creating personal tab
Creating personal tab
You can edit any tab online and save it as your Personal.

You can edit, replace or remove any tab part or add personal notes – all changes will be seen only by you.

Personal tabs can be accessed anytime from any device, even offline.
Learn more »
comments
print report bad tab
6 comments total. Showing first comments.
0 reply
silentscream3 10 Jan 18, 2007 05:35 PM

amazing!! totally correct! awsome tab! keep up the good work

+1 reply
jwolf1 114 Feb 14, 2007 11:50 AM

well after looking at this tab for some time i realized that i accidentally tabbed a whole step down on accident but if you are experienced with guitar you can move up a whole step.

+1 reply
stef123 30 May 10, 2007 07:46 AM

this tab... it a very gud no?

guest
You may want to rate the tab now too:
select rating
Wanna post a correction for this tab? Suggest correction