Oops, an error
Loading. Please wait.

Hands Bass Tab

273 views 3 this week
no commentswrite comment
1 2 3 4 5
excellent!
x 2
add to favorites
launch autoscroll
font size
0
reset
guitar tuner
Tab Pro tools
  • play this tab
  • loop segment
  • change instrument
  • show fretboard
  • metronome
Autoscroll
slow
fast
+/-
esc
set tempo
stop
Contributor
Difficulty
Tuning
novice
D# G# C# F# A# D#
Band: The Swellers
Title: Hands
Tuning: Half-step Down
Bassist: Anto Boros
Tabber: Nickel89

Intro:
-No bass

Verse1:
G|---------------------------------|
D|---------------------------------|
A|8888----8888----5555-------------|
E|----8888----6666----3333-66666666|

Pre chorus1:
G|--------------|
D|--------------|
A|--------------|
E|888-6666666666|

Chorus1:
G|-----------|
D|-----------|
A|8---5-8----|
E|-6-8---5-6~|

Verse2:
G|---------------------------------|
D|---------------------------------|
A|8888----8888----5555-------------|
E|----8888----6666----3333-66666666|

G|--------------------------------|
D|--------------------5555--------|
A|8888----8888----5555------------|
E|----8888----6666--------66666666|

Chorus2:
G|----------|
D|----------|
A|8---5-8---|
E|-6-8---5-6|

G|-----------------------------------|
D|-----------------------------------|
A|8888---------5555-8888-------------|
E|----6666-8888---------5555-66666666|

Bridge:
G|---------------------------------------------|
D|---------------------------------------------|
A|55555555-33333333----------------------------|
E|-----------------33333333-66-66-66-66-66-66-8|

Solo:
G|---------------------------------|
D|---------------------------------|
A|8888----8888----5555-------------|
E|----8888----6666----3333-66666666|

G|---------------------------|
D|---------------8888888888--|
A|-------------------------8~|
E|888-6666666666/------------|

*Rest*

Chorus3:
G|-----------------------------------|
D|-----------------------------------|
A|8888---------5555-8888-------------|
E|----6666-8888---------5555-66666666|

Outro:
G|--------------------------|
D|--------------------------|
A|8888-3333-5555------------|
E|--------------3333-5555-6~|
comments
We did not receive enough feedback on this tab! Please rate:
print report bad tab
1 2 3 4 5
I want to post or [tab]
guest
You may want to rate the tab now too:
select rating
Please do not post tabs as comments. Select "correction" instead!