Oops, an error
Loading. Please wait.

Hands Tab

version 1
version 1

Whole song

361 views 1 this week
no commentswrite comment
1 2 3 4 5
1 last vote to show rating
add to favorites
launch autoscroll
font size
0
reset
how to read this tab
guitar tuner
Autoscroll
slow
fast
+/-
esc
set tempo
stop
Help us to improve Ultimate-Guitar.com Take our survey!
×
Author
Tuning
D# G# C# F# A# D#
The Swellers - Hands

               
    Half-step Down
    

==============
 Rhythm Guitar
==============

*** Intro ***     
 
e|-------------------------------------------------------------------------------------|
B|-------------------------------------------------------------------------------------|
G|----10--10--10-10-10-------------------------10--10-9--10-9--------------------------|
D|----10--10--10-10-10---10--10-10--10-10-10---10--10-10-10-10---8---8-8--8-8-8--------|
A|----8---8---8--8--8----10--10-10--10-10-10---8---8--8--8--8----8---8-8--8-8-8--------|
E|----8---8---8--8--8----8---8--8---8--8--8----8---8--8--8--8----6---6-6--6-6-6--------|

e|--------------------------------------------------------------------------|
B|----6---6-6---6-6-6---3---3-3--3-3-3----1--1-1--1-1-1-1-------------------|
G|----7---7-7---7-7-7---3---3-3--3-3-3----3--3-3--3-3-3-3-------------------|
D|----7---7-7---7-7-7---5---5-5--5-5-5----3--3-3--3-3-3-3---(break)---------|
A|----5---5-5---5-5-5---5---5-5--5-5-5----1--1-1--1-1-1-1-------------------|
E|----5---5-5---5-5-5---3---3-3--3-3-3--------------------------------------|


==========================
 Rhythm Guitar/Lead Guitar
==========================


*** Verse I ***

e|-------------------------------------------------------------------------------------|
B|-------------------------------------------------------------------------------------|
G|----10--10--9--10-9--------------------------10--10-9--10-9--------------------------|
D|----10--10--10-10-10---10--10-10--10-10-10---10--10-10-10-10---8---8-8--8-8-8--------|
A|----8---8---8--8--8----10--10-10--10-10-10---8---8--8--8--8----8---8-8--8-8-8--------|
E|----8---8---8--8--8----8---8--8---8--8--8----8---8--8--8--8----6---6-6--6-6-6--------|


e|---------------------------------------------------------------------------|
B|----6---6-6---6-6-6---3---3-3--3-3-3----1--1-1--1-1-1-1-1-----------1------|
G|----7---7-7---7-7-7---3---3-3--3-3-3----3--3-3--3-3-3-3-3--5-5-5----3------|
D|----7---7-7---7-7-7---5---5-5--5-5-5----3--3-3--3-3-3-3-3--5-5-5----3-(x8)-|
A|----5---5-5---5-5-5---5---5-5--5-5-5----1--1-1--1-1-1-1-1--3-3-3----1------|
E|----5---5-5---5-5-5---3---3-3--3-3-3---------------------------------------|



*** Chorus I (First Half)  ***


==============
 Rhythm Guitar
==============
 

e|--------------------------------------------------------------------------------|
B|--------------------------------------------------------------------------------|
G|----10---------------------------------10---------------------------------------|
D|----10-(x8)--8-------------------------10-(x8)--8-------------------------------|
A|----8--------8-(x8)---7-(x8)-8--(x8)---8--------8-(x8)-7-(x8)--8-(4x)--5-(x4)---|
E|-------------6--------8------10-----------------6------8-------10------6--------|

                   
No Lead Guitar here.


*** Chorus I (Second Half)  ***

==============
 Rhythm Guitar
==============

e|-----------------------------------------------------------------------------------|
B|-----------------------------------------------------------------------------------|
G|----10---------------------------------10------------------------------------------|
D|----10-(x8)--8-------------------------10-(x8)--7----------------------------------|
A|----8--------8-(x8)---7-(x8)-8--(x8)---8--------7-(x8)--5-(x4)---x-x-x-xx-x-x-x----|
E|-------------6--------8------10-----------------5-------6--------x-x-x-xx-x-x-x----|


============
 Lead Guitar
============


e|--------------------------------------------------------------------------|
B|------10------8------8------8------8------8-------10------10--------------|
G|----------10-----10-----10-----10-----10-----10-------10------10----------|
D|--------------------------------------------------------------------------|
A|--------------------------------------------------------------------------|
E|--------------------------------------------------------------------------|


e|------------------------------------------------------------|
B|------10------8------8------8------8------8--10-------------|
G|----------10-----10-----10-----10-----10--------------------|
D|------------------------------------------------------------|
A|------------------------------------------------------------|
E|------------------------------------------------------------|



*** Verse II ***  

==============
 Rhythm Guitar
==============


e|-------------------------------------------------------------------------------------|
B|-------------------------------------------------------------------------------------|
G|----10--10--10-10-10-------------------------10--10-10-10-10-------------------------|
D|----10--10--10-10-10---10--10-10--10-10-10---10--10-10-10-10---8---8-8--8-8-8--------|
A|----8---8---8--8--8----10--10-10--10-10-10---8---8--8--8--8----8---8-8--8-8-8--------|
E|----8---8---8--8--8----8---8--8---8--8--8----8---8--8--8--8----6---6-6--6-6-6--------|

e|---------------------------------------------------------------------|
B|----6---6-6---6-6-6---3---3-3--3-3-3----1--1-1--1-1-1-1-1-1-1-1------|
G|----7---7-7---7-7-7---3---3-3--3-3-3----3--3-3--3-3-3-3-3-3-3-3------|
D|----7---7-7---7-7-7---5---5-5--5-5-5----3--3-3--3-3-3-3-3-3-3-3------|
A|----5---5-5---5-5-5---5---5-5--5-5-5----1--1-1--1-1-1-1-1-1-1-1------|
E|----5---5-5---5-5-5---3---3-3--3-3-3---------------------------------|

Repeat it once.

============
 Lead Guitar
============

e|-------------------------------------------------------------------------------------|
B|-------------------------------------------------------------------------------------|
G|----10--10--9--10-9--------------------------10--10-9--10-9--------------------------|
D|----10--10--10-10-10---10--10-10--10-10-10---10--10-10-10-10---8---8-8--8-8-8--------|
A|----8---8---8--8--8----10--10-10--10-10-10---8---8--8--8--8----8---8-8--8-8-8--------|
E|----8---8---8--8--8----8---8--8---8--8--8----8---8--8--8--8----6---6-6--6-6-6--------|

e|--------------------------------------------------------------------------|
B|--------------------------------------------------------------------------|
G|---10---10-10-10-10-10-10--9---9-9-9-9-9-9---9/7-7-7-7-7-7-7-7------------|
D|---x----x--x--x--x--x--x---x---x-x-x-x-x-x---x-x-x-x-x-x-x-x-x------------|
A|---8----8--8--8--8--8--8---7---7-7-7-7-7-7---7/5-5-5-5-5-5-5-5------------|
E|--------------------------------------------------------------------------|


e|--------------------------------------------------------------------------------|
B|--------------------------------------------------------------------------------|
G|---10---10-10-10-10-10--12---12-12--12-12-12-12--/14-\9--\7--7-7--7-7-7-7-------|
D|---x----x--x--x--x--x---x----x--x---x--x--x--x----x---x---x--x-x--x-x-x-x-------|
A|---8----8--8--8--8--8---10---10-10--10-10-10-10--/12-\7--\5--5-5--5-5-5-5-------|
E|--------------------------------------------------------------------------------|

e|------------------------------------------------------------------------|
B|------------------------------------------------------------------------|
G|---10---10-10-10-10-10-10--9---9-9-9-9-9-9---10-10-10-10-10-10-10-10----|
D|---x----x--x--x--x--x--x---x---x-x-x-x-x-x---x--x--x--x--x--x--x--x-----|
A|---8----8--8--8--8--8--8---7---7-7-7-7-7-7---8--8--8--8--8--8--8--8-----|
E|------------------------------------------------------------------------|


*** Chorus II  ***

==============
 Rhythm Guitar
==============
 
e|------------------------------------------------------------------------------------|
B|------------------------------------------------------------------------------------|
G|----10---------------------------------10-------------------------------------------|
D|----10-(x8)--8-------------------------10-(x8)--8-----------------------------8888--|
A|----8--------8-(x8)---7-(x8)-8--(x8)---8--------8-(x8)-7-(x8)--8-(4x)--5-(x4)-8888--|
E|-------------6--------8------10-----------------6------8-------10------6------6666--|



e|--------------------------------------------------------------------|
B|--------------------------------------------------------------------|
G|----10---------------------------------10---------------------------|
D|----10-(x8)--8--------10-----12--------10-(x8)--7-------8-----------|
A|----8--------8-(x8)---10-(x8)12-(x8)---8--------7-(x8)--8-(x8)------|
E|-------------6--------8------10-----------------5-------6-----------|

============
 Lead Guitar
============


e|--------------------------------------------------------------------------|
B|------10------8------8------8------8------8-------10------10--------------|
G|----------10-----10-----10-----10-----10-----10-------10------10----------|
D|--------------------------------------------------------------------------|
A|--------------------------------------------------------------------------|
E|--------------------------------------------------------------------------|


e|--------------------------------------------------------------|
B|------10------8------8------8------8------8---10------8-------|
G|----------10-----10-----10-----10-----10----------10-----10---|
D|--------------------------------------------------------------|
A|--------------------------------------------------------------|
E|--------------------------------------------------------------|



e|--------------------------------------------------------------------|
B|--------------------------------------------------------------------|
G|----10---------------------------------10---------------------------|
D|----10-(x8)--8--------10-----12--------10-(x8)--7-------8-----------|
A|----8--------8-(x8)---10-(x8)12-(x8)---8--------7-(x8)--8-(x8)------|
E|-------------6--------8------10-----------------5-------6-----------|

*** Bridge ***

==========================
 Rhythm Guitar/Lead Guitar
==========================

e|------------------------------------------------------------------------|
B|------------------------------------------------------------------------|
G|---7---------5----------------------------------------------------------|
D|---7---------5---------5---------8-8---8-8---8-8---8-8---8-10-----------|
A|---5-(x8)----3-(x8)----5-(x8)----8-8---8-8---8-8---8-8---8-10-----------|
E|---5---------3---------3---------6-6---6-6---6-6---6-6---6-8------------|


*** Solo ***

==============
 Rhythm Guitar
==============

e|-------------------------------------------------------------------------------------|
B|-------------------------------------------------------------------------------------|
G|----10--10--10-10-10-------------------------10--10-10-10-10-------------------------|
D|----10--10--10-10-10---10--10-10--10-10-10---10--10-10-10-10---8---8-8--8-8-8--------|
A|----8---8---8--8--8----10--10-10--10-10-10---8---8--8--8--8----8---8-8--8-8-8--------|
E|----8---8---8--8--8----8---8--8---8--8--8----8---8--8--8--8----6---6-6--6-6-6--------|

e|---------------------------------------------------------------------------|
B|----6---6-6---6-6-6---3---3-3--3-3-3----1--1-1--1-1-1-1-1-----------1------|
G|----7---7-7---7-7-7---3---3-3--3-3-3----3--3-3--3-3-3-3-3--5-5-5----3------|
D|----7---7-7---7-7-7---5---5-5--5-5-5----3--3-3--3-3-3-3-3--5-5-5----3-(x8)-|
A|----5---5-5---5-5-5---5---5-5--5-5-5----1--1-1--1-1-1-1-1--3-3-3----1------|
E|----5---5-5---5-5-5---3---3-3--3-3-3---------------------------------------|


============
 Lead Guitar
============

e|-----------------------------------------------------------------------------------------|
B|---------------------------------------------------------------/6-8-8b10--8-6-5-6--------|
G|----------------------------------------/7-9-9b10--9-7--5-5-7----------------------7-----|
D|---3-------3-2----2-2-3--3-3/7\5--3------------------------------------------------------|
A|------3--3--------------------------5~---------------------------------------------------|
E|-----------------------------------------------------------------------------------------|

e|-------------------------------------------------/13-13-13-13-15-15-15-15-17-17-17-17-17b18---17~-|
B|---5-5---6-6-6-6-8-8-8-8-10-10-10-10-11-11-11-11--------------------------------------------------|
G|--------------------------------------------------------------------------------------------------|
D|--------------------------------------------------------------------------------------------------|
A|--------------------------------------------------------------------------------------------------|
E|--------------------------------------------------------------------------------------------------|

*** Break ***


==============
 Rhythm Guitar
==============
 

e|-------------------------------------------------------------------------------|
B|-------------------------------------------------------------------------------|
G|----10---------------------------------10--------------------------------------|
D|----10-(x8)--8-------------------------10-(x8)--8----------------------8-------|
A|----8--------8-(x8)---7-(x8)-8--(x8)---8--------8-(x8)-7-(x8)--8-(4x)--8-------|
E|-------------6--------8------10-----------------6------8-------10------6-------|

Then both guitars

e|--------------------------------------------------------------------|
B|--------------------------------------------------------------------|
G|----10---------------------------------10---------------------------|
D|----10-(x8)--8--------10-----12--------10-(x8)--7-------8-----------|
A|----8--------8-(x8)---10-(x8)12-(x8)---8--------7-(x8)--8-(x8)------|
E|-------------6--------8------10-----------------5-------6-----------|

*** Outro ***

==============
 Rhythm Guitar
==============

e|--------------------------------------------------|
B|--------------------------------------------------|
G|----10----------------7---------------------------|
D|----10------10--------7--------5--------8~--------|
A|----8-(x8)--10-(x8)---5-(x8)---5-(x8)---8~--------|
E|----8-------8---------5--------3--------6~--------|

============
 Lead Guitar
============


e|--------------------------------------------------------------------------|
B|------10------8------8------8------10------8-------8-------11---10--------|
G|----------10-----10-----10-----10------10-----10-------10-------10--------|
D|--------------------------------------------------------------------------|
A|--------------------------------------------------------------------------|
E|--------------------------------------------------------------------------|


Suggest correction
Give kudos to tab author, rate the tab!
1 2 3 4 5
comments
print report bad tab
guest
You may want to rate the tab now too:
select rating
Wanna post a correction for this tab? Suggest correction