Oops, an error
Loading. Please wait.

I Found A Rainbow bass

7 views 1 this week
no commentswrite comment
1 2 3 4 5
3 more votes to show rating
add to favorites
×
Save as Personal and add changes to this tab that will be seen only by you. Learn more ›
×
You can save this tab as Personal to edit and correct it or add notes. All changes will be seen only by you. Learn more »
launch autoscroll
font size
0
reset
guitar tuner
edit
Autoscroll
slow
fast
+/-
esc
set tempo
stop
Author
Difficulty
Tabbed by: 6METAL6BASSIST6
E-mail: petergriffinav@gmail.com

Tuning: EADG

G|----------------------------------------------------------------|
D|----------------------------------------------------------------| x2
A|------------2---3-----------5---------------2---3-----------5---|
E|3-------------------------------3-------------------------------|

0:09

G|----------------------------------------------------------------|
D|----------------------------------------------------------------|
A|------------2---3-----------5---------------2---3-----------5---|
E|3-------------------------------3-------------------------------|

G|----------------------------------------------------------------|
D|----------------------------------------------------------------|
A|------------4---5-----------5---------------4---5-----------5---|
E|5-------------------------------5-------------------------------|

G|----------------------------------------------------------------|
D|----------------------------------------------------------------|
A|------------4---5-----------5---------------4---5---------------|
E|5-------------------------------5---------------------------5---|

G|----------------|
D|----------------|
A|5-------3---2---|
E|----------------|

G|----------------------------------------------------------------|
D|----------------------------------------------------------------|
A|------------2---3-----------5---------------2---3-----------5---|
E|3-------------------------------3-------------------------------|

0:27

G|----------------------------------------------------------------|
D|----------------------------------------------------------------|
A|------------2---3-----------5---------------2---3-----------5---|
E|3-------------------------------3-------------------------------|

G|----------------------------------------------------------------|
D|----------------------------------------------------------------|
A|------------4---5-----------5---------------4---5-----------5---|
E|5-------------------------------5-------------------------------|

G|----------------------------------------------------------------|
D|----------------------------------------------------------------|
A|------------4---5-----------5---------------4---5---------------|
E|5-------------------------------5---------------------------5---|

G|----------------|
D|----------------|
A|5-------3---2---|
E|----------------|

G|----------------------------------------------------------------|
D|----------------------------------------------------------------|
A|------------2---3-----------5---------------------------0---1---|
E|3-------------------------------3-----------3-------3-----------|

0:44

G|----------------------------------------------------------------|
D|----------------------------------------------------------------|
A|2-----------2-----------2-----------------------7---------------|
E|----------------2---------------5-----------5-----------5-------|

G|----------------------------------------------------------------|
D|----------------------------------------------------------------|
A|2-----------2-----------2---------------------------------------|
E|----------------2---------------0-----------2---3---------------|

G|----------------------------------------------------------------|
D|----------------------------------------------------------------|
A|3-----------3-----------3---------------------------------------|
E|----------------3---------------5-----------5---0-------5-------|

G|----------------------------------------------------------------|
D|----------------------------------------------------------------|
A|4-----------4-------------------5---------------5-------4-------|
E|----------------5-------5-------------------5-------------------|

G|--------------------------------|
D|--------------------------------|
A|5-------3-------2---2-----------|
E|------------------------5-------|

1:02

G|----------------------------------------------------------------|
D|----------------------------------------------------------------|
A|------------2---3-----------5---------------2---3-----------5---|
E|3-------------------------------3-------------------------------|

G|----------------------------------------------------------------|
D|----------------------------------------------------------------|
A|------------4---5-----------5---------------4---5-----------5---|
E|5-------------------------------5-------------------------------|

G|----------------------------------------------------------------|
D|----------------------------------------------------------------|
A|------------4---5-----------5---------------4---5---------------|
E|5-------------------------------5---------------------------5---|

G|------------------------------------------------|
D|------------------------------------------------|
A|5-------3---2---------------------------2-------|
E|----------------3-------------------------------|

G|----------------------------------------------------------------|
D|----------------------------------------------------------------|
A|----------------------------------------------------------------|
E|3---------------------------------------------------------------|

1:34

G|----------------------------------------------------------------|
D|----------------------------------------------------------------|
A|2-----------2-----------2-----------------------7---------------|
E|----------------2---------------5-----------5-----------5-------|

G|----------------------------------------------------------------|
D|----------------------------------------------------------------|
A|2-----------2-----------2---------------------------------------|
E|----------------2---------------0-------2-------3-----------3---|

G|----------------------------------------------------------------|
D|----------------------------------------------------------------|
A|3-----------3-----------3---------------------------------------|
E|----------------3---------------5-----------5---0-------5-------|

G|----------------------------------------------------------------|
D|----------------------------------------------------------------|
A|----------------7-------6-------5-----------5-------------------|
E|------------5-----------------------------------5-------5-------|

G|--------------------------------|
D|--------------------------------|
A|5-------3-------2---------------|
E|------------------------5-------|

1:40

G|----------------------------------------------------------------|
D|----------------------------------------------------------------|
A|------------2---3-----------5---------------2---3-----------5---|
E|3-------------------------------3-------------------------------|

G|----------------------------------------------------------------|
D|----------------------------------------------------------------|
A|------------4---5-----------5---------------4---5-----------5---|
E|5-------------------------------5-------------------------------|

G|----------------------------------------------------------------|
D|----------------------------------------------------------------|
A|------------4---5-----------5---------------4---5---------------|
E|5-------------------------------5---------------------------5---|

G|----------------|
D|----------------|
A|5-------3---2---|
E|----------------|

G|----------------------------------------------------------------|
D|----------------------------------------------------------------|
A|------------2---3-----------5---------------2---3-----------5---|
E|3-------------------------------3-------------------------------|

1:57

G|----------------------------------------------------------------|
D|5---------------------------4---5-------------------------------|
A|------------2---3-------5-------------------2---3-------5-------|
E|----------------------------------------------------------------|

G|----------------------------------------------------------------|
D|----------------------------4---5-------------------------------|
A|------------2---3---------------------------2---3-----------5---|
E|3---------------------------------------------------------------|

G|----------------------------------------------------------------|
D|----------------------------4---5-------------------------------|
A|------------2---3-------5-------------------2---3-------5-------|
E|3---------------------------------------------------------------|

G|----------------------------------------------------|
D|----------------------------4---5-------------------| fades out here.
A|------------2---3-------5-------------------2---3---|
E|3---------------------------------------------------|

            
            
Suggest correction
Creating personal tab
Creating personal tab
You can edit any tab online and save it as your Personal.

You can edit, replace or remove any tab part or add personal notes – all changes will be seen only by you.

Personal tabs can be accessed anytime from any device, even offline.
Learn more »
Give kudos to tab author, rate the tab!
1 2 3 4 5
comments
print report bad tab
guest
You may want to rate the tab now too:
select rating
Wanna post a correction for this tab? Suggest correction