Oops, an error
Loading. Please wait.

Zavoj Tab

13 views 1 this week
no commentswrite comment
1 2 3 4 5
3 more votes to show rating
add to favorites
launch autoscroll
font size
0
reset
how to read this tab
guitar tuner
Autoscroll
slow
fast
+/-
esc
set tempo
stop
Help us to improve Ultimate-Guitar.com Take our survey!
×
Author
Difficulty
Tuning
intermediate
C G C F A D
The.Switch - Zavoj

Drop C - C G C f a d

Tab by mattrevenger

The.Switch
Zavoj
Album M.A.D (2002)
Publishing Company: Own Expense
Producent: Michal Majklac Novak
Mix: Pavel Brom (Avik)
Mastering: Premer Haas (PyHa)
Album art: Michal Majklac Novak

homepage:
http://bandzone.cz/theswitch

mp3:
http://www.theswitch.cz/download/freecd/mad.zip

[Intro]
D|----------------------------------------------------------------------------------|
A|----------------------------------------------------------------------------------|
F|-----------------------------------------------------------------------------*5*--|
C|--------x------------------x-------------------x------------------x-------*5*-----|
G|--2-2-x-x-x-2-2------2-2-x-x-x-2-2---------2-x-x-x-2-2------2-2-x-x-x-2-*5*-------|
C|--2-2-x---x-2-2-x6p5-2-2-x---x-2-2-x6p5-2v-2-x---x-2-2-x6p5-2-2-x---x-2-----------|

D|-------------------------------------------------------------------------------------|
A|-------------------------------------------------------------------------------------|
F|-------------------------------------------------------------------------------------|
C|--------x------------------x-------------------x------------------x----x-x-----------|
G|--2-2-x-x-x-2-2------2-2-x-x-x-2-2---------2-x-x-x-2-2------2-2-x-x-x--x-x-----------|
C|--2-2-x---x-2-2-x6p5-2-2-x---x-2-2-x6p5-2v-2-x---x-2-2-x6p5-2-2-x---x--x-x-----------|

[Verse]
D|----------------------------------------------------------------------------------|
A|----------------------------------------------------------------------------------|
F|-----------------------------------------------------------------------------*5*--|
C|--------x------------------x-------------------x------------------x-------*5*-----|
G|--2-2-x-x-x-2-2------2-2-x-x-x-2-2---------2-x-x-x-2-2------2-2-x-x-x-2-*5*-------|
C|--2-2-x---x-2-2-x6p5-2-2-x---x-2-2-x6p5-2v-2-x---x-2-2-x6p5-2-2-x---x-2-----------|

D|-------------------------------------------------------------------------------------|
A|-------------------------------------------------------------------------------------|
F|-------------------------------------------------------------------------------------|
C|--------x------------------x-------------------x------------------x-------x-x--------|
G|--2-2-x-x-x-2-2------2-2-x-x-x-2-2---------2-x-x-x-2-2------2-2-x-x-x-2-2-x-x--------|
C|--2-2-x---x-2-2-x6p5-2-2-x---x-2-2-x6p5-2v-2-x---x-2-2-x6p5-2-2-x---x-2-2-x-x--------|

[Interlude]
D|-8-8-7-8----------------------------|
A|-8-7-5-7----------------------------|
F|-5-5-5-5----------------------------|
C|------------------------------------|
G|------------------------------------|
C|------------------------------------|

[Verse 2]
D|----------------------------------------------------------------------------------|
A|----------------------------------------------------------------------------------|
F|-----------------------------------------------------------------------------*5*--|
C|--------x------------------x-------------------x------------------x-------*5*-----|
G|--2-2-x-x-x-2-2------2-2-x-x-x-2-2---------2-x-x-x-2-2------2-2-x-x-x-2-*5*-------|
C|--2-2-x---x-2-2-x6p5-2-2-x---x-2-2-x6p5-2v-2-x---x-2-2-x6p5-2-2-x---x-2-----------|

D|-------------------------------------------------------------------------------------|
A|-------------------------------------------------------------------------------------|
F|-------------------------------------------------------------------------------------|
C|--------x------------------x-------------------x------------------x-------x-x--------|
G|--2-2-x-x-x-2-2------2-2-x-x-x-2-2---------2-x-x-x-2-2------2-2-x-x-x-2-2-x-x--------|
C|--2-2-x---x-2-2-x6p5-2-2-x---x-2-2-x6p5-2v-2-x---x-2-2-x6p5-2-2-x---x-2-2-x-x--------|

[Pre-Chorus]                         2x
D|-8-8-7-8----------------------------|
A|-8-7-5-7----------------------------|
F|-5-5-5-5----------------------------|
C|------------------------------------|
G|------------------------------------|
C|------------------------------------|

[Chorus]                                              3x
D|-----------------------------------------------------!-------|
A|-----------------------------------------------------!-------|
F|-12-11-----------------------------------------------!-12-14-|
C|-12-12----------------------------------------5-4----!-12-14-|
G|-10-10----------------------2---------------------5--!-10-12-|
C|-10-10--2-2-2-3-2-2-2-2-3-2---2-2-2-3-2-2-2-2--------!-10-12-|

[Interlude 2]
D|---------------------------------------------------------------|
A|---------------------------------------------------------------|
F|---------------------------------------------------------------|
C|---------------------------------------------------------------|
G|-2-2-3-2--2-2-2-2h3p2--2-2-3-2--2------------------------------|
C|-2-2-3-2--2-2-2-2h3p2--2-2-3-2--2------------------------------|

[Verse 3]
D|----------------------------------------------------------------------------------|
A|----------------------------------------------------------------------------------|
F|-----------------------------------------------------------------------------*5*--|
C|--------x------------------x-------------------x------------------x-------*5*-----|
G|--2-2-x-x-x-2-2------2-2-x-x-x-2-2---------2-x-x-x-2-2------2-2-x-x-x-2-*5*-------|
C|--2-2-x---x-2-2-x6p5-2-2-x---x-2-2-x6p5-2v-2-x---x-2-2-x6p5-2-2-x---x-2-----------|

D|-------------------------------------------------------------------------------------|
A|-------------------------------------------------------------------------------------|
F|-------------------------------------------------------------------------------------|
C|--------x------------------x-------------------x------------------x-------x-x--------|
G|--2-2-x-x-x-2-2------2-2-x-x-x-2-2---------2-x-x-x-2-2------2-2-x-x-x-2-2-x-x--------|
C|--2-2-x---x-2-2-x6p5-2-2-x---x-2-2-x6p5-2v-2-x---x-2-2-x6p5-2-2-x---x-2-2-x-x--------|

[Pre-Chorus]                       2x
D|-8-8-7-8----------------------------|
A|-8-7-5-7----------------------------|
F|-5-5-5-5----------------------------|
C|------------------------------------|
G|------------------------------------|
C|------------------------------------|

[Chorus]                                              3x
D|-----------------------------------------------------!-------|
A|-----------------------------------------------------!-------|
F|-12-11-----------------------------------------------!-12-14-|
C|-12-12----------------------------------------5-4----!-12-14-|
G|-10-10----------------------2---------------------5--!-10-12-|
C|-10-10--2-2-2-3-2-2-2-2-3-2---2-2-2-3-2-2-2-2--------!-10-12-|

[Interlude 3]
D|---------------------------------------------------------------|
A|---------------------------------------------------------------|
F|---------------------------------------------------------------|
C|---------------------------------------------------------------|
G|-2-2-3-2--2-2-2-2h3p2--2-2-3-2--2-2-2-2h3p2--------------------|
C|-2-2-3-2--2-2-2-2h3p2--2-2-3-2--2-2-2-2h3p2--------------------|

[Pre-Breakdown]
      4x
D|------!-------------------|
A|------!-------------------|
F|-9--9-!-9~~~~~~~~~~~~~~~~-|
C|-x--x-!-x-----------------|
G|-7--8-!-8~~~~~~~~~~~~~~~~-|
C|------!-------------------|

[Breakdown]
D|-----------------------------------------|
A|-----------------------------------------|
F|-9-9-----9---9-9-9---10----10--10--10-10-|
C|-9-9-----9---9-9-9---7-----7----7--7--7--|
G|-7~~~7-7~~~7~~~~~~-0~8-0-0~8--0~8--8--8--|
C|-7~~~7-7~~~7~~~~~~-0~~~0-0~~~~0~~~~~~~---|

[Breakdown 2]
 Guitar 1
D|------------------------|
A|------------------------|
F|-9-9-7-7-5-4/5--5-5--4--|
C|-x-x-x-x-x-x-x--x-x--x--|
G|-7-7-5-5-3-2/3--3-3--2--|
C|------------------------|

 Guitar 2
D|--------------------------------|
A|-13-13-11-11-10-15-15-14-14-11--|
F|-x--x--x--x--x--x--x--x--x--x---|
C|-10-10-9--9--7--12-12-10-10-9---|
G|--------------------------------|
C|--------------------------------|

[Outro]
D|-------------------------------------------------------------------------------------|
A|-------------------------------------------------------------------------------------|
F|-----------------10------------------------------------10----------------------------|
C|-----------------x-------------------------------------x------------------------*7*--|
G|-7-7-x-x-7-7-x-x-8--7-7-x-x-7-7-x-x----7-7-x-x-7-7-x-x-8--7-7-x-x-7-7-x-x----*7*-----|
C|-7-7-x-x-7-7-x-x----7-7-x-x-7-7-x-x-8v-7-7-x-x-7-7-x-x----7-7-x-x-7-7-x-x-*8*--------|



************************************

x - muted string
~ - let ring
v - bend
h - hammer on
p - pull off

************************************ 
Suggest correction
Give kudos to tab author, rate the tab!
1 2 3 4 5
comments
print report bad tab
guest
You may want to rate the tab now too:
select rating
Wanna post a correction for this tab? Suggest correction