Oops, an error
Loading. Please wait.

Arcane Montane Tab

1,861 views 3 this week
1 commentread comment
1 2 3 4 5
accurate
x 4
add to favorites
launch autoscroll
font size
0
reset
how to read this tab
guitar tuner
Tab Pro tools
  • play this tab
  • loop segment
  • change instrument
  • show fretboard
  • metronome
×
Best way to learn
"Arcane Montane"
Autoscroll
slow
fast
+/-
esc
set tempo
stop
Contributor
Difficulty
Tuning
intermediate
C G C F A D
-----------------------------------------------------------------------------------
                             ARCANE MONTANE - The Sword
-----------------------------------------------------------------------------------

Tuning: Drop C  (CGCFAD)
Time: 4/4
Tabbed by: qovneob

The solo probalby isnt quite right but I think its close

[Intro]

00:00
D|----------------|-----------------|-------------------|----------------|-------------------------|
A|----------------|-----------------|-------------------|----------------|-------------------------|
F|----------------|------------5-5--|-------------------|------------5-5-|-------------------------|
C|------------3-5-|------------3-3--|-------------3h5p3-|------------3-3-|-------------3-5b6r5-----|
G|-5-3-0------3-5-|-3h5-5-3h5-5-----|-3h5-5-3h5-5-------|-3h5-5-3h5-5----|-3p2-2-3p2-2---------5-3-|
C|-------5--0-3-5-|-----------------|-------------------|----------------|-------------------------|

[Verse]

0:26    Tell me, oh mountain what secrets do you hold...
|------------------|--------------------|------------------|-------------------------|
|------------------|--------------------|------------------|-------------------------|
|-------------5-5--|--------------------|-------------5-5--|-------------------------|
|-------------3-3--|-------------3h5p3--|-------------3-3--|-------------3-5b6r5-----|
|-3h5-5-3h5-5------|-3h5-5-3h5-5--------|-3h5-5-3h5-5------|-3p2-2-3p2-2---------5-3-|
|------------------|--------------------|------------------|-------------------------|

0:36    Has ever man in all his days climbed your mightly slopes...
|------------------|--------------------|------------------|-------------------------|
|------------------|--------------------|------------------|-------------------------|
|-------------5-5--|--------------------|-------------5-5--|-------------------------|
|-------------3-3--|-------------3h5p3--|-------------3-3--|-------------------------|
|-3h5-5-3h5-5------|-3h5-5-3h5-5--------|-3h5-5-3h5-5------|-3p2-2-3p2-2--2--3--5----|
|------------------|--------------------|------------------|-------------------------|

[Chorus]

0:46    Tell me,                        Oh Mountain,
|-----------------------------------|---------------------------------------------|
|-----------------------------------|---------------------------------------------|
|-----------------------------------|---------------------------------------------|
|-5/7-7--5/7-7--5/7-7--5/7-7--10-10-|-14\12-12--14\12-12--14\12-12--14\12-12--5-7-|
|-3/5-5--3/5-5--3/5-5--3/5-5--8--8--|-12\10-10--12\10-10--12\10-10--12\10-10--3-5-|
|-----------------------------------|---------------------------------------------|

0:56    Your secrets!
|-----------------------------------|----------------|
|-----------------------------------|----------------|
|-----------------------------------|----------------|
|-5\4-4--5\4-4--5\4-4--5\4-4--5-10--|------------3-5-|
|-3\2-2--3\2-2--3\2-2--3\2-2--3-8---|-5-3-0------3-5-|
|-----------------------------------|-------5--0-3-5-|

[Verse]

1:04
|------------------|--------------------|------------------|-------------------------|
|------------------|--------------------|------------------|-------------------------|
|-------------5-5--|--------------------|-------------5-5--|-------------------------|
|-------------3-3--|-------------3h5p3--|-------------3-3--|-------------3-5b6r5-----|
|-3h5-5-3h5-5------|-3h5-5-3h5-5--------|-3h5-5-3h5-5------|-3p2-2-3p2-2---------5-3-|
|------------------|--------------------|------------------|-------------------------|

1:14    Hear me oh spirits, I would ask of thee...
|------------------|--------------------|------------------|-------------------------|
|------------------|--------------------|------------------|-------------------------|
|-------------5-5--|--------------------|-------------5-5--|-------------------------|
|-------------3-3--|-------------3h5p3--|-------------3-3--|-------------3-5b6r5-----|
|-3h5-5-3h5-5------|-3h5-5-3h5-5--------|-3h5-5-3h5-5------|-3p2-2-3p2-2---------5-3-|
|------------------|--------------------|------------------|-------------------------|

1:25    The road can be a lonely place to pass the time...
|------------------|--------------------|------------------|-------------------------|
|------------------|--------------------|------------------|-------------------------|
|-------------5-5--|--------------------|-------------5-5--|-------------------------|
|-------------3-3--|-------------3h5p3--|-------------3-3--|-------------------------|
|-3h5-5-3h5-5------|-3h5-5-3h5-5--------|-3h5-5-3h5-5------|-3p2-2-3p2-2--2--3--5----|
|------------------|--------------------|------------------|-------------------------|

[Chorus]

1:35    Here me,                        Oh spirits,
|-----------------------------------|---------------------------------------------|
|-----------------------------------|---------------------------------------------|
|-----------------------------------|---------------------------------------------|
|-5/7-7--5/7-7--5/7-7--5/7-7--10-10-|-14\12-12--14\12-12--14\12-12--14\12-12--5-7-|
|-3/5-5--3/5-5--3/5-5--3/5-5--8--8--|-12\10-10--12\10-10--12\10-10--12\10-10--3-5-|
|-----------------------------------|---------------------------------------------|

1:45    Lend me your aid!
|-----------------------------------|----------------------------|------|
|-----------------------------------|----------------------------|------|
|-----------------------------------|----------------------------|------|
|-5\4-4--5\4-4--5\4-4--5\4-4--5-10--|----------------------3-5-5-|-(5)--|
|-3\2-2--3\2-2--3\2-2--3\2-2--3-8---|-5-3-0----------------3-5-5-|-(5)--|
|-----------------------------------|-------5--0-7-7-5-3-0-3-5-5-|-(5)--|

[Bridge]

1:58
|--------|--------|--------|
|--------|--------|--------|
|--------|--------|--------|
|-3-0-0--|-3-5-5--|-3-0-0--|
|-3-0-0--|-3-5-5--|-3-0-0--|
|-3-0-0--|-3-5-5--|-3-0-0--|

[Solo]

2:13 - Riff 1
|-------------------------|----------------|-------------------------|--------------|
|-------------------------|----------------|-------------------------|--------------|
|-------------10----------|----------------|-------------12-10-------|--------------|
|-10h12-10h12----14-12-10-|-10h12-10h12-10-|-10h12-10h12-------14-10-|-10p7--8-7----|
|-------------------------|----------------|-------------------------|-----------10-|
|-------------------------|----------------|-------------------------|--------------| x2

2:34 - Riff 2   (Riff 1 plays over top the second time)
|-------------------|-----------|----------------------|-------------|
|-------------------|-----------|----------------------|-------------|
|-------------------|-----------|----------------------|-------------|
|-5s7-5s7--10-9-7-5-|-7--5s7-5--|-5s7-5s7--12-10-------|-------------|
|-3s5-3s5--8--7-5-3-|-5--3s5-3--|-3s5-3s5--10-8--12-10-|-10p7--8-7-5-|
|-------------------|-----------|----------------12-10-|-10p7--8-7-5-| x2

2:54
|----------------------------------------|---------------------------------|
|----------------------------------------|----10-10------------------------|
|-12b14=14=14=14=14=14r12-10----------10-|----10-10------------------------|
|----------------------------12-10-12----|-12-------12p10-10h12-10---------|
|----------------------------------------|-------------------------12-10-8-|
|----------------------------------------|---------------------------------|

2:59
|----------------------------------|------------------------------------------------------------|
|----------------------------------|---------13-10----------------------------------------------|
|----------------------------------|-10-12b--------12-12----10-10----10-10-----10-12br----10-12-|
|----------------------------10----|---------------------12-------12--------12---------12-------|
|-------8----8h10-12-8-10h12----12-|------------------------------------------------------------|
|-10h12---12-----------------------|------------------------------------------------------------|

3:04
|------13--12---------13----|------13--12-------------------|
|--------------15--13b==13b-|--------------15-13------------|
|---------------------------|--------------------14-12-12br-|
|-12-12--12--12--12---------|-12-12--12--12-----------------|
|---------------------------|-------------------------------|
|---------------------------|-------------------------------|

3:09
|---------------------------------------------------|
|------------------------------------------------10-|
|-12b13r12p10-12p10-12-10p7-10-7--12-10p7-10-7-12---|
|---------------------------------------------------|
|---------------------------------------------------|
|---------------------------------------------------|

|-----------------------------13p12p10-15p13p12-17-|
|---10-13p12p10--10-15p13p10-----------------------|
|-12-----------12-----------12---------------------|
|--------------------------------------------------|
|--------------------------------------------------|
|--------------------------------------------------|

3:15
|------------------------|------------------------|
|------------------------|------------------------|
|------------------10-10-|-----------10--10h12p10-|
|-10h12-12-10h12-12------|---10-12-10--12---------|
|------------------------|-12---------------------|
|------------------------|------------------------|

|--------------------------------|-------------------|
|------13b15=15r-----------------|-------------------|
|-12s14---------14-12-10--10br---|-10p9-10p9-9s10s12-|
|-----------------------12----12-|-------------------|
|--------------------------------|-------------------|
|--------------------------------|-------------------|


[Outro]

3:25    Tell me, oh mountain what secrets do you hold...
|------------------|--------------------|------------------|-------------------------|
|------------------|--------------------|------------------|-------------------------|
|-------------5-5--|--------------------|-------------5-5--|-------------------------|
|-------------3-3--|-------------3h5p3--|-------------3-3--|-------------3-5b6r5-----|
|-3h5-5-3h5-5------|-3h5-5-3h5-5--------|-3h5-5-3h5-5------|-3p2-2-3p2-2---------5-3-|
|------------------|--------------------|------------------|-------------------------|

3:35    Tell me,                        Oh Mountain,
|-----------------------------------|---------------------------------------------|
|-----------------------------------|---------------------------------------------|
|-----------------------------------|---------------------------------------------|
|-5/7-7--5/7-7--5/7-7--5/7-7--10-10-|-14\12-12--14\12-12--14\12-12--14\12-12--5-7-|
|-3/5-5--3/5-5--3/5-5--3/5-5--8--8--|-12\10-10--12\10-10--12\10-10--12\10-10--3-5-|
|-----------------------------------|---------------------------------------------|

3:45    Your deepest secrets
|------------------------------------|----------------------------|------|
|------------------------------------|----------------------------|------|
|------------------------------------|----------------------------|------|
|-5\4-4--5\4-4--5\4-4--5\4-4--10-10--|----------------------3-5-5-|-(5)--|
|-3\2-2--3\2-2--3\2-2--3\2-2--8--8---|-5-3-0----------------3-5-5-|-(5)--|
|------------------------------------|-------5--0-7-7-5-3-0-3-5-5-|-(5)--|
comments
print report bad tab
1 comment total.
0 reply
Slayer821 wrote on June 15 2013, 08:24 pm

nice tab but wrong tuning. They play in C standard

I want to post or [tab]
guest
You may want to rate the tab now too:
select rating
Please do not post tabs as comments. Select "correction" instead!