Oops, an error
Loading. Please wait.

Cloak Of Feathers Tab

version 1
version 1

Whole song

7,287 views 54 this week
4 commentsread comments
1 2 3 4 5
excellent!
x 5
add to favorites
launch autoscroll
font size
0
reset
how to read this tab
guitar tuner
Tab Pro tools
  • play this tab
  • loop segment
  • change instrument
  • show fretboard
  • metronome
×
Best way to learn
"Cloak Of Feathers"
Autoscroll
slow
fast
+/-
esc
set tempo
stop
Contributor
Difficulty
Tuning
intermediate
C G C F A D
-----------------------------------------------------------------------------------
                             CLOAK OF FEATHERS - The Sword v2
-----------------------------------------------------------------------------------

Fixed a bunch of mistakes in the first version
Tuning: Drop C Standard ( C G C F A D )
Time: 4/4


[Intro]


0:00
D|---------------------|----------------------|--------------------|---------------------------|
A|---------------------|----------------------|--------------------|---------------------------|
F|-7-7-----------------|-7-7-7----------------|-5-5----------------|-x-7-7-----------------5h7-|
C|-7-7---------------3-|-7-7-7--------------5-|-5-5--7-5-3-5-3-----|-x-7-7-----7p5p3p0-5h7-----|
G|-5-5--5-3-0--5-3-0---|-5-5-5--5-3-0-5-3-0---|-3-3------------5-3-|-x-5-5-3-5-----------------|
C|---------------------|----------------------|--------------------|---------------------------|

0:11
|---------------------|----------------------|--------------------|-----------------------------|
|---------------------|----------------------|--------------------|-----------------------------|
|-7-7-----------------|-7-7-7----------------|-5-5----------------|-x-7-7-----------------------|
|-7-7---------------3-|-7-7-7--------------5-|-5-5--7-5-3-5-3-----|-x-7-7-----7p5p3p0-7p5p3p0-3-|
|-5-5--5-3-0--5-3-0---|-5-5-5--5-3-0-5-3-0---|-3-3------------5-3-|-x-5-5-3-5-------------------|
|---------------------|----------------------|--------------------|-----------------------------|

0:22
|---------------------|----------------------|--------------------|---------------------------|-----|
|---------------------|----------------------|--------------------|---------------------------|-----|
|-7-7-----------------|-7-7-7----------------|-5-5----------------|-x-7-7-----------------5h7-|-----|
|-7-7---------------3-|-7-7-7--------------5-|-5-5--7-5-3-5-3-----|-x-7-7-----7p5p3p0-5h7-----|-----|
|-5-5--5-3-0--5-3-0---|-5-5-5--5-3-0-5-3-0---|-3-3------------5-3-|-x-5-5-3-5-----------------|-5---|
|---------------------|----------------------|--------------------|---------------------------|-----|


[Verse]


0:34    She wore a cloak of feathers, and rode a mare of purest white
|---------|---------|--------------------|----------------|
|---------|---------|--------------------|----------------|
|-7-------|-5-------|-10-7-5-7-----------|----------------|
|-7-------|-5-------|-10-7-5-7-----3-----|----------------|
|-5-------|-3-------|-8--5-3-5-3h5---5p3 |-5p3p0----------|
|---------|---------|--------------------|-------5p3h5-0--|

0:43    A silver chalice in her hands, a look of sadness in her eyes
|---------|---------|--------------------|----------------|
|---------|---------|--------------------|----------------|
|-7-------|-5-------|-10-7-5-7-----------|----------------|
|-7-------|-5-------|-10-7-5-7-----3-----|----------------|
|-5-------|-3-------|-8--5-3-5-3h5---5p3 |-5p3p0----------|
|---------|---------|--------------------|-------5p3h5-0--|


0:54    A thing of beauty to behold,            but a sorrow to posess
|---------|---------|--------------------------|----------------------5h8-|
|---------|---------|-------------6--------8---|-------------6----6h8-----|
|---------|---------|-5h7p5h7p5h7---7--5h7---5-|-5h7p5h7p5h7---7----------|
|-5-------|-(5)-----|--------------------------|--------------------------|
|-5-------|-(5)-----|--------------------------|--------------------------|
|-5-------|-(5)-----|--------------------------|--------------------------|

1:05    She'll take all that you offer until there's nothing left
|---------|---------|--------------------|----------------|
|---------|---------|--------------------|----------------|
|-7-------|-5-------|-10-7-5-7-----------|----------------|
|-7-------|-5-------|-10-7-5-7-----3-----|----------------|
|-5-------|-3-------|-8--5-3-5-3h5---5p3 |-5p3p0----------|
|---------|---------|--------------------|-------5p3h5-0--|

1:14    Nothing left
|--------------------|----------------|------------------------|---------------|
|--------------------|----------------|------------------------|---------------|
|-10-7-5-7-----------|----------------|------------------------|---------------|
|-10-7-5-7-----3-----|----------------|-15-12-10-12------3-----|---------------|
|-8--5-3-5-3h5---5p3 |-5p3p0----------|-15-12-10-12--3h5---5p3-|-5p3p0---------|
|--------------------|-------5p3h5-0--|-15-12-10-12------------|-------5p3h5-0-|

1:25    Face hidden in shadow beneath a hood of quills
|--------|-----------|------------|-------|
|--------|-----------|------------|-------|
|--------|-----------|------------|-------|
|-12-----|-10--10s12-|-7---5----7-|-0-----|
|-12-----|-10--10s12-|-7---5----7-|-0-----|
|--------|-----------|-----5----7-|-0-----|

1:36    The fittings of her raiment conceal all her ills
|--------|-----------|------------|-------|
|--------|-----------|------------|-------|
|--------|-----------|------------|-------|
|-12-----|-10--10s12-|-7---5----7-|-0-----|
|-12-----|-10--10s12-|-7---5----7-|-0-----|
|--------|-----------|-----5----7-|-0-----|


[Solo]


1:45
|---------------------|-------------5-------|--------------5b6r5---|----------------|
|---------5-8-5-------|---------5-8---8-5---|----------5-8-------8-|-5--5h8p5-------|
|---5---5-------7-5-7-|-----5-7-----------5-|-7--7-5-7-------------|----------7-7s9-|
|-7---7---------------|-5-7-----------------|----------------------|----------------|
|---------------------|---------------------|----------------------|----------------|
|---------------------|---------------------|----------------------|----------------|

1:55
|----------------------|--------------5-------|--------------5b6r5---|----------------|
|----------5-8-5-------|----------5-8---8-5---|----------5-8-------8-|-5--3s5-8--8s10-|
|----5---5-------7-5-7-|------5-7-----------5-|-7--7-5-7-------------|----------------|
|-7----7---------------|-5--7-----------------|----------------------|----------------|
|----------------------|----------------------|----------------------|----------------|
|----------------------|----------------------|----------------------|----------------|

2:06 (Drum solo}
|--------|----------|--------------------|------------------|
|--------|----------|--------------------|------------------|
|-7-7----|-7-7-7----|-5-5----------------|-x-7-7------------|
|-7-7----|-7-7-7----|-5-5----------------|-x-7-7------------|
|-5-5----|-5-5-5----|-3-3----------------|-x-5-5------------|
|--------|----------|--------------------|------------------|   x3

2:26 (Guitar 2)
|----5br-|----------|---------------------------------------|
|--------|------7br-|-----7b-7b-7-5-7-5---5-----------------|
|--------|----------|-------------------7-----7-----------7-|   (let ring)
|--------|----------|-----------------------7---7-5-3s5-7---|
|--------|----------|---------------------------------------|
|--------|----------|---------------------------------------|


[Verse]


2:38    Beneath her cloak of feathers lies a body soft and fine
|---------|---------|--------------------|----------------|
|---------|---------|--------------------|----------------|
|-7-------|-5-------|-10-7-5-7-----------|----------------|
|-7-------|-5-------|-10-7-5-7-----3-----|----------------|
|-5-------|-3-------|-8--5-3-5-3h5---5p3 |-5p3p0----------|
|---------|---------|--------------------|-------5p3h5-0--|

2:48    Beneath her cloak of feathers lies a body soft and fine
|---------|---------|--------------------|----------------|
|---------|---------|--------------------|----------------|
|-7-------|-5-------|-10-7-5-7-----------|----------------|
|-7-------|-5-------|-10-7-5-7-----3-----|----------------|
|-5-------|-3-------|-8--5-3-5-3h5---5p3 |-5p3p0----------|
|---------|---------|--------------------|-------5p3h5-0--|

2:58    A thing of beauty to remember,          but a sorrow to forget
|---------|---------|--------------------------|----------------------5h8-|
|---------|---------|-------------6--------8---|-------------6----6h8-----|
|---------|---------|-5h7p5h7p5h7---7--5h7---5-|-5h7p5h7p5h7---7----------|
|-5-------|-(5)-----|--------------------------|--------------------------|
|-5-------|-(5)-----|--------------------------|--------------------------|
|-5-------|-(5)-----|--------------------------|--------------------------|

3:09    She took all that I gave her 'til there was nothing left
|---------|---------|--------------------|----------------|
|---------|---------|--------------------|----------------|
|-7-------|-5-------|-10-7-5-7-----------|----------------|
|-7-------|-5-------|-10-7-5-7-----3-----|----------------|
|-5-------|-3-------|-8--5-3-5-3h5---5p3 |-5p3p0----------|
|---------|---------|--------------------|-------5p3h5-0--|

3:18    Nothing left
|--------------------|----------------|-----------------------------|-------------------------|
|--------------------|----------------|-----------------------------|-------------------------|
|-10-7-5-7-----------|----------------|-----------------------------|-------------------------|
|-10-7-5-7-----3-----|----------------|-15-12-10-12--------15-------|-19p17p15-------------12-|
|-8--5-3-5-3h5---5p3 |-5p3p0----------|-15-12-10-12--15h17----17p15-|----------17-15-12h15----|
|--------------------|-------5p3h5-0--|-15-12-10-12-----------------|-------------------------|

3:29    Of owl and of raven, of peacock and dove
|--------|-----------|------------|-------|
|--------|-----------|------------|-------|
|--------|-----------|------------|-------|
|-12-----|-10--10s12-|-7---5----7-|-0-----|
|-12-----|-10--10s12-|-7---5----7-|-0-----|
|--------|-----------|-----5----7-|-0-----|

3:39    Of swan and of sparrow, woven with her love
|--------|-----------|------------|-------|
|--------|-----------|------------|-------|
|--------|-----------|------------|-------|
|-12-----|-10--10s12-|-7---5----7-|-0-----|
|-12-----|-10--10s12-|-7---5----7-|-0-----|
|--------|-----------|-----5----7-|-0-----|

3:49    Face hidden in shadow beneath a hood of quills
|--------|--------|-------|-------|
|-15-----|-13-----|-8-----|-3-----|
|-14-----|-12-----|-7-----|-2-----|
|-12-----|-10-----|-5-----|-0-----|
|-12-----|-10-----|-5-----|-0-----|
|-12-----|-10-----|-5-----|-0-----|

3:59    The fittings of her raiment conceal all her ills
|--------|--------|-------|-------|
|-15-----|-13-----|-8-----|-3-----|
|-14-----|-12-----|-7-----|-2-----|
|-12-----|-10-----|-5-----|-0-----|
|-12-----|-10-----|-5-----|-0-----|
|-12-----|-10-----|-5-----|-0-----|


[Solo]


4:09
|---------------------|-------------5-------|--------------5-b6r5---|----------------|
|---------5-8-5-------|---------5-8---8-5---|----------5-8--------8-|-5--5h6p5-------|
|---5---5-------7-5-7-|-----5-7-----------5-|-7--7-5-7--------------|----------7-7s9-|
|-7---7---------------|-5-7-----------------|-----------------------|----------------|
|---------------------|---------------------|-----------------------|----------------|
|---------------------|---------------------|-----------------------|----------------|

4:19
|----------------------|--------------5-------|--------------5-b6r5---|----------------|
|----------5-8-5-------|----------5-8---8-5---|----------5-8--------8-|-5--3s5-8--8s10-|
|----5---5-------7-5-7-|------5-7-----------5-|-7--7-5-7--------------|----------------|
|-7----7---------------|-5--7-----------------|-----------------------|----------------|
|----------------------|----------------------|-----------------------|----------------|
|----------------------|----------------------|-----------------------|----------------|

4:29
|-------------------------------------------------|
|-10h13p10----------------------------------------|
|----------12-10-10h12p10-------10-------------10-|
|-------------------------12-10----12-10----12----|
|----------------------------------------12-------|
|-------------------------------------------------|


[Outro] 

4:32

|---------------------|----------------------|--------------------|-----------------------------|
|---------------------|----------------------|--------------------|-----------------------------|
|-7-7-----------------|-7-7-7----------------|-5-5----------------|-x-7-7-----------------------|
|-7-7---------------3-|-7-7-7--------------5-|-5-5--7-5-3-5-3-----|-x-7-7-----7p5p3p0-7p5p3p0-3-|
|-5-5--5-3-0--5-3-0---|-5-5-5--5-3-0-5-3-0---|-3-3------------5-3-|-x-5-5-3-5-------------------|
|---------------------|----------------------|--------------------|-----------------------------|

4:42
|-----------------------|----------------------|--------------------|---------------------------|
|----------------------|----------------------|--------------------|---------------------------|
|--7-7-----------------|-7-7-7----------------|-5-5----------------|-x-7-7-----------------5h7-|
|--7-7---------------3-|-7-7-7--------------5-|-5-5--7-5-3-5-3-----|-x-7-7-----7p5p3p0-5h7-----|
|--5-5--5-3-0--5-3-0---|-5-5-5--5-3-0-5-3-0---|-3-3------------5-3-|-x-5-5-3-5-----------------|
|----------------------|----------------------|--------------------|---------------------------|


4:52
|---------------------|----------------------|--------------------|-----------------------------|
|---------------------|----------------------|--------------------|-----------------------------|
|-7-7-----------------|-7-7-7----------------|-5-5----------------|-x-7-7-----------------------|
|-7-7---------------3-|-7-7-7--------------5-|-5-5--7-5-3-5-3-----|-x-7-7-----7p5p3p0-7p5p3p0-3-|
|-5-5--5-3-0--5-3-0---|-5-5-5--5-3-0-5-3-0---|-3-3------------5-3-|-x-5-5-3-5-------------------|
|---------------------|----------------------|--------------------|-----------------------------|

5:03
|----------------------|----------------------|--------------------|---------------------------|-----|
|----------------------|----------------------|--------------------|---------------------------|-----|
|--7-7-----------------|-7-7-7----------------|-5-5----------------|-x-7-7-----------------5h7-|-----|
|--7-7---------------3-|-7-7-7--------------5-|-5-5--7-5-3-5-3-----|-x-7-7-----7p5p3p0-5h7-----|-----|
|--5-5--5-3-0--5-3-0---|-5-5-5--5-3-0-5-3-0---|-3-3------------5-3-|-x-5-5-3-5-----------------|-5---|
|----------------------|----------------------|--------------------|---------------------------|-----|


************************************

| /   slide up
| \   slide down
| h   hammer-on
| p   pull-off
| ~   vibrato
| +   harmonic
| x   Mute note
| b   Bend
| pb  Pre-bend
| br  Bend release
| pbr Pre-bend release
| brb Bend release bend

************************************
comments
print report bad tab
4 comments total. Showing first comments.
+1 reply
TheGarfi wrote on July 20 2013, 01:18 pm

Tuning is wrong. They play in C Standard

0 reply
TheGarfi wrote on July 20 2013, 01:20 pm

Sorry, my bad

0 reply
sdstevens wrote on October 20 2013, 05:31 pm

Could someone re-post this with the correct C standard tuning??

I want to post or [tab]
guest
You may want to rate the tab now too:
select rating
Please do not post tabs as comments. Select "correction" instead!