Oops, an error
Loading. Please wait.

Ebethron tab

version 1
version 1

Whole song

Interactive

2,585 views 1 this week
no commentswrite comment
1 2 3 4 5
1 last vote to show rating
add to favorites
×
Save as Personal and add changes to this tab that will be seen only by you. Learn more ›
×
You can save this tab as Personal to edit and correct it or add notes. All changes will be seen only by you. Learn more »
launch autoscroll
font size
0
reset
how to read this tab
guitar tuner
edit
Autoscroll
slow
fast
+/-
esc
set tempo
stop
Ebethron

(Winds)
Intro
|------------------------------------------------------------------|
|------------------------------------------------------------------|
|------------------------------------------------------------------|
|-7-9-7-9--------7-9-7-9--------7-9-7-9----------------7-9-7-9-----|
|-5-7-5-7--------5-7-5-7--------5-7-5-7----------------5-7-5-7-----|
|----------------------------------------7~-10~-5b6r5~-------------|

Verse 1
Part 1 8x
|--------------------------------|
|--------------------------------|
|--------------------------------|
|-7-9-7-9~---9---9-9---9~---9----|
|-5-7-5-7~---7---7-7---7~---7----|
|----------0---0-----0----0---0--|

Part 2 4x 
|----------------------------------|
|----------------------------------|
|----------------------------------|
|-10-9-10-9~-----------------------|
|--8-7--8-7~-----------------------|
|------------0-0-0-0-0-0-0-0-0-0-0-|
             . . . . . . . . . . .

Interlude 1
Part 1 2x
|------------------------------------------------------------|
|------------------------------------------------------------|
|------------------------------------------------------------|
|-7---------9---7-9---7~-9-9-------------9---7-9--10~-9-9----|
|-5-8-7-2---7---5-7---5~-7-7---3-2-3-2---7---5-7---8~-7-7----|
|---6-5-0-0---0-----0--------0-1-0-1-0-0---0-----0--------0--|
    . .       .     .        . . . .       .     .        .
Part 2
|----------------------------------|
|----------------------------------|
|----------------------------------|
|-7--------------------------------|
|-5-8-7-2~~~~~~~~~~~~~~~~~~~~~~~~~-|
|---6-5-0~~~~~~~~~~~~~~~~~~~~~~~~~-|
    . .

Verse 2
Part 1 3x
|-------------------------------------------|
|-------------------------------------------|
|-------------------------------------------|
|-------------------------------------------|
|-------------------------------------------|
|-0--0-1p0~-0--0-1p0~-0--0-1p0~-0--0-1p0~---|
  .  .      .  .      .  .      .  .
Part 2
|-------------------------------------------|
|-------------------------------------------|
|-------------------------------------------|
|------7/9~------7/9~------7/9~-----7/9~----|
|------5/7~------5/7~------5/7~-----5/7~----|
|-0--0------0--0------0--0-----0--0---------|
  .  .      .  .      .  .     .  .
|-------------------------------------------|
|-------------------------------------------|
|-------------------------------------------|
|-------------------------------------------|
|-------------------------------------------|
|-0--0-1p0~-0--0-1p0~-0--0-1p0~-0--0-1p0~---|
  .  .      .  .      .  .      .  .
|-------------------------------------------|
|-------------------------------------------|
|-------------------------------------------|
|------7/9~------7/9~------7/9~-----7/9~----|
|------5/7~------5/7~------5/7~-----5/7~----|
|-0--0------0--0------0--0-----0--0---------|
  .  .      .  .      .  .     .  .
|-------------------------------------------|
|-------------------------------------------|
|-------------------------------------------|
|-----10\9~-----10\9~-----10\9~-6-6-6-7-7-7-|
|------8\7~------8\7~------8\7~-5-5-5-5-5-5-|
|-0~~0------0~~0------0~~0------------------|

|------------------------------------------------|
|------------------------------------------------|
|------------------------------------------------|
|-----10\9~-----10\9~-----10\9~10-10-10-12-12-12-|
|------8\7~------8\7~------8\7~-8--8--8-10-10-10-|
|-0~~0------0~~0------0~~0-----------------------|

|-------------------------------------------|
|-------------------------------------------|
|-------------------------------------------|
|-----10\9~-----10\9~-----10\9~-6-6-6-7-7-7-|
|------8\7~------8\7~------8\7~-5-5-5-5-5-5-|
|-0~~0------0~~0------0~~0------------------|

|-------------------------------------------|
|-------------------------------------------|
|-------------------------------------------|
|-----10\9~-----10\9~-----10\9~-------------|
|------8\7~------8\7~------8\7~-3-2-3-------|
|-0~~0------0~~0------0~~0------1-0-1-------|
                                . . .
Verse 3
Part 1 3x
|-------------------------------------------|
|-------------------------------------------|
|-------------------------------------------|
|-------------------------------------------|
|-------------------------------------------|
|-0--0-1p0~-0--0-1p0~-0--0-1p0~-0--0-1p0~---|
  .  .      .  .      .  .      .  .
Part 2
|-------------------------------------------|
|-------------------------------------------|
|-------------------------------------------|
|------7/9~------7/9~------7/9~-----7/9~----|
|------5/7~------5/7~------5/7~-----5/7~----|
|-0--0------0--0------0--0-----0--0---------|
  .  .      .  .      .  .     .  .
|-------------------------------------------|
|-------------------------------------------|
|-------------------------------------------|
|-------------------------------------------|
|-------------------------------------------|
|-0--0-1p0~-0--0-1p0~-0--0-1p0~-0--0-1p0~---|
  .  .      .  .      .  .      .  .
|-------------------------------------------|
|-------------------------------------------|
|-------------------------------------------|
|------7/9~------7/9~------7/9~-----7/9~----|
|------5/7~------5/7~------5/7~-----5/7~----|
|-0--0------0--0------0--0-----0--0---------|
  .  .      .  .      .  .     .  .
|-------------------------------------------|
|-------------------------------------------|
|-------------------------------------------|
|-----10\9~-----10\9~-----10\9~-6-6-6-7-7-7-|
|------8\7~------8\7~------8\7~-5-5-5-5-5-5-|
|-0~~0------0~~0------0~~0------------------|

|------------------------------------------------|
|------------------------------------------------|
|------------------------------------------------|
|-----10\9~-----10\9~-----10\9~10-10-10-12-12-12-|
|------8\7~------8\7~------8\7~-8--8--8-10-10-10-|
|-0~~0------0~~0------0~~0-----------------------|

|-------------------------------------------|
|-------------------------------------------|
|-------------------------------------------|
|-----10\9~-----10\9~-----10\9~-6-6-6-7-7-7-|
|------8\7~------8\7~------8\7~-5-5-5-5-5-5-|
|-0~~0------0~~0------0~~0------------------|

|-------------------------------------------|
|-------------------------------------------|
|-------------------------------------------|
|-----10\9~-----10\9~-----10\9~-7-----------|
|------8\7~------8\7~------8\7~-5-8-7-------|
|-0~~0------0~~0------0~~0--------6-5-------|
                                  . .
Interlude 2
Part 1 2x
|-------------------------------------------|
|-------------------------------------------|
|-------------------------------------------|
|-------------------------------------------|
|-------------------------------------------|
|-0--0-1p0-1-1-1-3-3-3-0--0-1p0-1-1-1-3-3-3-|
  .  .                 .  .
Part 2 2x
|-------------------------------------------|
|-------------------------------------------|
|-------------------------------------------|
|-2--2-3p2-3-3-3-5-5-5-2--2-3p2-3-3-3-5-5-5-|
|-------------------------------------------|
|-------------------------------------------|

Part 3
|-------------------------------------------|
|-------------------------------------------|
|-------------------------------------------|
|-------------------------------------------|
|-2~~~~~~~~~~~~~~~~~~~~~~~------------------|
|-0~~~~~~~~~~~~~~~~~~~~~~~------------------|

(Drum Solo)

|--------------------------------|
|--------------------------------|
|--------------------------------|
|-7-9-7-9--------7-9-7-9~~~~~~~~-|
|-5-7-5-7--------5-7-5-7~~~~~~~~-|
|--------------------------------|

Verse 4
Part 1 8x
|--------------------------------|
|--------------------------------|
|--------------------------------|
|-7-9-7-9~---9---9-9---9~---9----|
|-5-7-5-7~---7---7-7---7~---7----|
|----------0---0-----0----0---0--|

Part 2 4x 
|----------------------------------|
|----------------------------------|
|----------------------------------|
|-10-9-10-9~-----------------------|
|--8-7--8-7~-----------------------|
|------------0-0-0-0-0-0-0-0-0-0-0-|
             . . . . . . . . . . .

Interlude 1
Part 1 2x
|------------------------------------------------------------|
|------------------------------------------------------------|
|------------------------------------------------------------|
|-7---------9---7-9---7~-9-9-------------9---7-9--10~-9-9----|
|-5-8-7-2---7---5-7---5~-7-7---3-2-3-2---7---5-7---8~-7-7----|
|---6-5-0-0---0-----0--------0-1-0-1-0-0---0-----0--------0--|
    . .       .     .        . . . .       .     .        .

Part 2 1x
|-----------|
|-----------|
|-----------|
|-7---------|
|-5-8-7-2~~-|
|---6-5-0~~-|
    . .
Outro Part 1 4x
|-------------------------------|
|-------------------------------|
|-------------------------------|
|-------------------------------|
|-------------------------------|
|-1////7-10-5b6r5-2-3-2-3-0~~---|
                    . . .
Part 2
|-------------------------------|
|-------------------------------|
|---------9b11r9----------------|
|-5//9-12-----------------------|
|----------------9-10-9-10------|
|--------------------------12~~-|
                    . .  .
|-------------------------------------------|
|-------------------------------------------|
|-------------------------------------------|
|-5//9-12-7b8r7-----------------------------|
|---------------9-10-9-10-------------------|
|-------------------------12~~~~~~~~~~~~~~~-|
                   . .  .

            
            
Suggest correction
Creating personal tab
Creating personal tab
You can edit any tab online and save it as your Personal.

You can edit, replace or remove any tab part or add personal notes – all changes will be seen only by you.

Personal tabs can be accessed anytime from any device, even offline.
Learn more »
Give kudos to tab author, rate the tab!
1 2 3 4 5
comments
print report bad tab
guest
You may want to rate the tab now too:
select rating
Wanna post a correction for this tab? Suggest correction