Oops, an error
Loading. Please wait.

Empty Temples tab

version 1
version 1

Whole song

Interactive

3,897 views 36 this week
4 commentsread comments
1 2 3 4 5
x 7
add to favorites
×
Save as Personal and add changes to this tab that will be seen only by you. Learn more ›
×
You can save this tab as Personal to edit and correct it or add notes. All changes will be seen only by you. Learn more »
launch autoscroll
font size
0
reset
how to read this tab
guitar tuner
edit
Autoscroll
slow
fast
+/-
esc
set tempo
stop
-------------------------------------------------------------------------------
                             Empty Temples - The Sword
-------------------------------------------------------------------------------
Tabbed by: quikslvr223
E-mail: quikslvr223@gmail.com

Tuning: Eb Standard (Who would have thought, The Sword of all bands, using Eb?)
The E A D G B e below is meant to represent  Eb Ab Db Gb Bb eb

-----------------------
         INTRO
-----------------------

e|---------------------|
B|---------------------|
G|------9----------9---|
D|---------------------|
A|-7--7---7---7--7---7-|
E|---------------------| 8x

As it goes, a second guitar comes in doing this (but I may be wrong, it's quite hard to hear):
e|------------------|
B|------------------|
G|------------------|
D|-9p7h9p79p7h9p7h9-|
A|------------------|
E|------------------|

Now, here's what you came here for.
e|------------------------------------|
B|------------------------------------|
G|-9p7--------------------------------|
D|-----9p7h9p5~-----------------------|
A|--------------7-5--7/9--7-----------|
E|--------------------------0--0-0--0-| 4x - On the fourth, you play the palm muted E only three times, then:
                            *  * *  *
e|--------------------------------------------------------------|
B|--------------------------------------------------------------|
G|----------------------------7h9p7---7~---999999999999---------|
D|------------------------7h9-------9------------------9999999\-|
A|-5\4/5---4/5/7---9\7/9-------------------------------7777777\-|
E|-3\2/3---2/3/5---7\5/7----------------------------------------|

---------------------
         VERSE
---------------------

e|-----------------------------------------------------------------------------|
B|-----------------------------------------------------------------------------|
G|-----------------------------------------------------------------------------|
D|-9-----7/9\7----7-9-----7/9\7----7-9--7-9---7/9\7--7/9\7---7-5---5-4---4/7/9-|
A|-7-----5/7\5----5-7-----5/7\5----5-7--5-7---5/7\5--5/7\5---5-3---3-2---2/5/7-|
E|-----------------------------------------------------------------------------|

e|------------------------------------------------------------------------------|
B|------------------------------------------------------------------------------|
G|------------------------------------------------------------------------------|
D|-------------7-9-9-9-9-9-9-9-9-9-9---------7/9\7------------------------------|
A|-4-5---9\7---5-7-7-7-7-7-7-7-7-7-7---4-5---5/7\5---7--9-9-9-9-9-9-9-9-9-9-9-9-|
E|-2-3---7\5---------------------------2-3-----------5--7-7-7-7-7-7-7-7-7-7-7-7-|
Then play that awesome intro riff until the 2nd verse.

Before the bridge starts, the lead goes:
e|-10b12-10~-----------------------------------10--12-12-12-12-12-|
B|------------10b12-10--8---------8~--10b12-10--------------------|
G|------------------------9~----7---------------------------------|
D|----------------------------------------------------------------|
A|----------------------------------------------------------------|
E|----------------------------------------------------------------|
---------------------
        BRIDGE
---------------------

e|--------------------------------------------------------------------------|
B|--------------------------------------------------------------------------|
G|--------------------------------------------------------------------------|
D|-9--9-9-9--9--9-9-9--9--9-9-9--9--9-9-9--9--9-9-9--9--9-9-9--12--12--7--7-|
A|-7--7-7-7--7--7-7-7--7--7-7-7--7--7-7-7--7--7-7-7--7--7-7-7--10--9---5--4-|
E|--------------------------------------------------------------------------|

----------------------
   BRIDGE PT 2/SOLO
----------------------
The lead just plays the solo an octave higher.
e|-------------------------------------------------------------------|
B|-------------------------------------------------------------------|
G|-------------------------------------------------------------------|
D|-------------------------------------------------5b----------------|
A|-5~-----5/7~----9-7-9--------5h7p5---5~--7-7-5-7----7-5-7-9-7-5-7~-|
E|-3~--0--3/5~--0-7-5-7--0-5h7-------7-------------------------------| 4x 
                                                    (add an F5 chord before the first F#5)

On the third repeat, the lead guitar does:
e|-------------15---------------------------|
B|-17-17-15-17-----17-15-17-17b19-17-15-17~-|
G|------------------------------------------|
D|------------------------------------------|
A|------------------------------------------|
E|------------------------------------------|

---------------------
        OUTRO
---------------------

Outro is that lead lick, with extremely simple variations on both lead and rhythm guitar.
I think it's in the F#/Eb major scale, but please correct me if I'm wrong.

************************************

| /   slide up
| \   slide down
| h   hammer-on
| p   pull-off
| ~   vibrato
| *   palm mute
| x   Mute note
| b   Bend
| pb  Pre-bend
| br  Bend release
| pbr Pre-bend release
| brb Bend release bend

************************************

            
            
Suggest correction
Creating personal tab
Creating personal tab
You can edit any tab online and save it as your Personal.

You can edit, replace or remove any tab part or add personal notes – all changes will be seen only by you.

Personal tabs can be accessed anytime from any device, even offline.
Learn more »
comments
print report bad tab
4 comments total. Showing first comments.
0 reply
bulletv1 20 Aug 07, 2015 07:40 PM

Awesome! Thanks for getting this up so fast! I'd love to have a tab for Dreamthieves and Shadow & Mist.

0 reply
joshczik 10 Aug 26, 2015 08:05 AM

Just one quick thing I noticed regarding the tuning. quikslvr223 is correct that it's in Eb, but it's in 432 hz tuning, not standard 440 hz. It's easy to miss until you try playing with the song and you'll notice that you're sharp relative to them even right after you tune your guitar.

0 reply
kyussxx 10 Sep 05, 2015 05:09 AM

Thanks for the Tab Mate.

Have done a cover on Youtube /w just Guitar and on Vimeo /w Song

https://vimeo.com/138386656
https://www.youtube.com/watch?v=C-QyTjT6m2Y

guest
You may want to rate the tab now too:
select rating
Wanna post a correction for this tab? Suggest correction