Oops, an error
Loading. Please wait.

Freya tab

version 3
version 3
5,575 views 1 this week
14 commentsread comments
1 2 3 4 5
x 12
add to favorites
×
Save as Personal and add changes to this tab that will be seen only by you. Learn more ›
×
You can save this tab as Personal to edit and correct it or add notes. All changes will be seen only by you. Learn more »
launch autoscroll
font size
0
reset
how to read this tab
guitar tuner
backing track
0:00
0:00
edit
Autoscroll
slow
fast
+/-
esc
set tempo
stop
Song: Freya
Artist: The Sword
Album: Age of Winters (2006)

Tuning is in Dropped C
c-g-c-f-a-d

Intro: Play all 4 riffs then repeat it once
d--------------------------------|------------------------------|
a--------------------------------|------------------------------|
f--------------------------------|------------------------------|
c--------------------------------|------------------------------|
g------3-5p3-5--3-5p3------------|------3-5p3-5—3-5p3------8----|
c----0----------------6p5-3h5----|----0----------------5s7------|

d--------------------------------|-------------------------|
a--------------------------------|-------------------------|
f--------------------------------|-------------------------|
c--------------------------------|-------------------------|
g------3-5p3-5--3-5p3------------|-------------------------|
c----0----------------6p5-3------|----5-5-3-5--3-5b-5-3----|

Riff A: (All open C’s are Palm Muted)
d------------------------------------------------|
a------------------------------------------------|
f------------------------------------------------|
c------------------------------------------------|
g--------------------------------0----0----------|
c----0000-0000-0000-000-00--0000-0-00-0--0000----|
                                    ^double picking


Riff B: x3 ((All open C’s are Palm Muted)
d---------------------------------|
a---------------------------------|
f---------------------------------|
c-------------7----7---5---5s7----|
g-------------5----5---3---3s5----|
c----(00)-000---00---0---0--------|
 ^Doubling picking on the next two times
 play as a single note 1st time

Riff C: x1 after Riff B is played 3 times
d--------------------|
a--------------------|
f--------------------|
c----8-7--10s12-7----|
g----6-5---8s10-5----|
c--------------------|

Riff B: 2 times (same as before with double picking)

Riff D: x1 after Riff B is played 2 times
d-------------------------------------------|
a-------------------------------------------|
f-------------------------------------------|
c---------7----8---10---8s7--5-5------------|
g---------5----6----8---6s5--3-3------------|
c----0000---00---0---0-----------6-5-3-0----|


Verse A: x6
d---------------------------------------|
a---------------------------------------|
f---------------------------------------|
c-------777-555-5s7-10-7--10s12--10-----|
g----0--555-333-3s5-8 –5---8s10---8-----|
c----0----------------------------------|

Verse B: x8
d------------------|
a------------------|
f------------------|
c----5s7-----------|
g----3s5-----------|
c---------3p0-0----|

Repeat the Riff Sequence from before…
Riff B: x3
Riff C: x1
Riff B: x2 (played as rhythm behind solo)
Riff D: x1 (played as rhythm behind solo)

Solo:
(Sorry I don’t have the solo everyone, Im working on it)

Verse A: x6

Verse B: x16
Riff E: x12
d-------------|
a-------------|
f-------------|
c-------------|
g-------------|
c----6p0-0----|

Riff F: x12
d----------|
a----------|
f----------|
c----------|
g----------|
c----5p0-0-|

Riff G: x30 (that part in the middle, JC just turns on his phaser for the rest of it)
d-------------|
a-------------|
f-------------|
c----4s6-6----|
g----2s4-4----|
c-------------|

Riff H: x1 (finally its over)
d------------|-------|------------|---------|
a------------|-------|------------|---------|
f------------|-------|------------|--7-5----|
c----4s6   --|-------|----4s6   --|---------|
g----2s4 x7--|--2----|----2s4 x7--|---------|
c------------|----0--|------------|---------|


Bridge???: x1
d------------------------|
a------------------------|
f------------------------|
c----6h8-6---6-----------|
g----------8----8-6-3----|
c------------------------|

Headbangin’ A: x2
d-------------------------------|-----------------------------|
a----------------6-6h8-6h8------|----------------6-8b9-6------|
f------------5-7----------------|------------6-8---------8----|
c----77-5-7---------------------|----77-5-7-------------------|
g----55-3-5---------------------|----55-3-5-------------------|
c-------------------------------|-----------------------------|

Headbangin’ B: x1
d----------------------------------|
a----------------------------------|
f----------------------------------|
c----75-5-7--5h7-5h7--3---5-3------|
g----55-3-5-------------5-----5----|
c----------------------------------|

Headbangin’ C: x1
d------------------------------|
a--------------------6---6v~---|
f------------6h8-6h8---8-------|
c----77-5-7--------------------|
g----55-3-5--------------------|
c------------------------------|


Verse C: x4
d-------------------|
a-------------------|
f-------------------|
c----77-xxxx-5-7----|
g----55-xxxx-3-5----|
c-------xxxx--------|


Headbangin’ A: x1

Mini Solo: x1
(working on it everyone, it will be here soon)


Outro: Play all 4 riffs then repeat it once
d--------------------------------|------------------------------|
a--------------------------------|------------------------------|
f--------------------------------|------------------------------|
c--------------------------------|------------------------------|
g------3-5p3-5--3-5p3------------|------3-5p3-5—3-5p3------8----|
c----0----------------6p5-3h5----|----0----------------5s7------|

d--------------------------------|-------------------------------|
a--------------------------------|-------------------------------|
f--------------------------------|-------------------------------|
c--------------------------------|-------------------------------|
g------3-5p3-5--3-5p3------------|-----------------------(55)----|
c----0----------------6p5-3------|----5-5-3-5--3-5b-5-3--(00)----|
^play only on second time

            
            
Suggest correction
Creating personal tab
Creating personal tab
You can edit any tab online and save it as your Personal.

You can edit, replace or remove any tab part or add personal notes – all changes will be seen only by you.

Personal tabs can be accessed anytime from any device, even offline.
Learn more »
comments
print report bad tab
14 comments total. Showing first comments.
0 reply
fallout5959 299 Jan 02, 2007 06:19 PM

Great tab. The only problem is the tuning is wrong. They play down two full steps, so their in C ( C-F-Bb-Eb-G-C ). It's no biggie though ( just everything that's not on the C string up one step). Otherwise awesome tab.

0 reply
BranMuffins??? 30 Jan 15, 2007 03:05 PM

YOu sure???

0 reply
guitardude700 10 Jan 17, 2007 01:20 AM

im really intrested in the intro mainly coz its wicked but i cant seem to play it of any tab.


THE SWORD RULE

guest
You may want to rate the tab now too:
select rating
Wanna post a correction for this tab? Suggest correction