Oops, an error
Loading. Please wait.

Horned Goddess Tab

version 2
version 2

Whole song

Interactive

3,128 views 3 this week
no commentswrite comment
1 2 3 4 5
please rate
add to favorites
launch autoscroll
font size
0
reset
how to read this tab
guitar tuner
Autoscroll
slow
fast
+/-
esc
set tempo
stop
Help us to improve Ultimate-Guitar.com Take our survey!
×
Author
Difficulty
Tuning
intermediate
C G C F A D

 THE SWORD-THE HORNED GODDESS
  I KNOW THIS IS WRONG BECAUSE THE REAL TUNING IS IN C STANDARD (CFA#D#Gc)BUT, THIS IS 
BEST ANYONE WILL FIND FOR DROP C.

  LEAD GUITAR/VOCALS-JOHN D. CRONISE
  RHYTHM GUITAR-KYLE SHUTT
  BASS-BRIAN RICHIE
  DRUMS-TRIVETT WINGO

                      KEY
                      H-HAMMER ON
                      P-PULL OFF
                      V-VIBRATO
                       M-PALM MUTE
                      B-BEND
                      \OR/-SLIDE IN THAT DIRRECTION
                        THE HORNED GODDESS    LISTEN TO SONG FOR TIMING
                          DROP C TUNING


   INTRO
   D----------------|---------------------|----------------|
   A----------------|---------------------|----------------|
   F----------------|---------------------|----------------|(x4)
   C----------0-----|-------12---10--10---|--0-------------|
   G----------0-----|-------12---10--10---|-/5-------------|
   C----------0-----|-------12---10--10---|--0-------------|
   PLAY FIRST TIME ONLY                      DON'T PLAY FOURTH TIME
   RIFF 1
   D-------------------------------------------------------|
   A-------------------------------------------------------|
   F-------------------------------------------------------|(x4)
   C--0----------------------10-12V--12-10--------12--10-10|
   G--0---------3-5----10-10----------------12-10-12--10-10|
   C--0--3-3-5------------------------------------12--10-10|

   RIFF 2                                                        2ND TIME
   D-----------------------------------------------------------|-----------|
   A-----------------------------------------------------------|-----------|
   F-----------------------------------------------------------|-----------|
   C--0--------------------------------------------------------|-----10-12V|
   G--0--------------------------------------------------------|10-12------|
   C--0-12-10-0-12-10-0-12-10-0-12-10-0-12-10-0-10-12-10-9-10-9|-----------|
       4TH TIME
   D-----------------|
   A-----------------|
   F-----------------|
   C-----------------|
   G--10-12-10-9-10-9|
   C-----------------|

   RIFF 3
   D-----------------------------------------------|
   A-----------------------------------------------|
   F-----------------------------------------------|
   C-----------------------------------------------|
   G--0-0-0-0-0-0-0-0-0-0-0-0----5-6--5---3--5-3---|
   C--0-0-0-0-0-0-0-0-0-0-0-0----5-6--5---3--5-3---|
        M M   M M   M M   M
   RIFF 4
   D-----------------------------------------------------------|
   A-----------------------------------------------------------|
   F------0-12B-12-12\10--10-------------0-12B-12-12\10-10-10\9|
   C------0-12B-12-12\10--10-------------0-12B-12-12\10-10-10\9|
   G--0-0--------------------10-12-0-0-0-----------------------|
   C--0-0--------------------10-12-0-0-0-----------------------|
          M     M         M        M     M     M        M

   D-----------------------------------------------------------|
   A-----------------------------------------------------------|
   F------0-12B-12-12\10--10-------------0-12B-12-12\10-10-----|
   C------0-12B-12-12\10--10-------------0-12B-12-12\10-10-----|
   G--0-0--------------------10-12-0-0-0-------------------10-9|
   C--0-0--------------------10-12-0-0-0-------------------10-9|
          M     M         M        M     M     M        M

   VERSE                       FIRST TIME
   D----------------------------|----------------------------|
   A----------------------------|----------------------------|
   F----------------------------|----------------------------|
   C----------------------------|----------------------------|
   G----------------------------|-------------8--------------|
   C---0-0-0-0-12-1212-1212-1010|0-0-12-10-12---12-10-9-10-9-|
            2ND AND 4TH TIME               3RD TIME
   D----------------------------|----------------------------|
   A----------------------------|----------------------------|
   F----------------------------|----------------------------|
   C----------------------------|----------------------------|
   G-----------8----8-8H10-8----|-----------8-----8-7-8-7V---|
   C--12-10-12---12-----------12|-12-10-12-----12------------|

   RIFF 5
   D---------------------------------|
   A---------------------------------|
   F---------------------------------|(x2)
   C---------------------------------|
   G-0--12\0-0-6-6--0--12\0-0-10-10--|
   C-0--12\0-0-6-6--0--12\0-0-10-10--|


   RIFF 2
   D-----------------------------------------------------------|
   A-----------------------------------------------------------|
   F-----------------------------------------------------------|
   C--0--------------------------------------------------------|
   G--0--------------------------------------------------------|
   C--0-12-10-0-12-10-0-12-10-0-12-10-0-12-10-0-10-12-10-9-10-9|

   D------------------|
   A------------------|
   F-------------10-12|
   C-------10-12------|
   G-10-12------------|
   C------------------|


   D-----------------------------------------------------------|
   A-----------------------------------------------------------|
   F-----------------------------------------------------------|
   C--0--------------------------------------------------------|
   G--0--------------------------------------------------------|
   C--0-12-10-0-12-10-0-12-10-0-12-10-0-12-10-0-10-12-10-9-10-9|

   D-----------------|
   A-----------------|
   F-----------------|
   C-----------------|
   G--10-12-10-9-10-9|
   C-----------------|

    RIFF 3
   D----------------------------------------------|
   A----------------------------------------------|
   F----------------------------------------------|(x4)
   C----------------------------------------------|
   G-0-0-0-0-0-0-0-0-0-0-0-0----5-6--5---3--5-3---|
   C-0-0-0-0-0-0-0-0-0-0-0-0----5-6--5---3--5-3---|
       M M   M M   M M   M

   JOHN WOULD GO INTO A SOLO AFTER SECOND TIME OF RIFF 3 HERE BUT I DON'T KNOW IT.


   RIFF 4
   D-----------------------------------------------------------|
   A-----------------------------------------------------------|
   F------0-12B-12-12\10--10-------------0-12B-12-12\10-10-10\9|
   C------0-12B-12-12\10--10-------------0-12B-12-12\10-10-10\9|
   G--0-0--------------------10-12-0-0-0-----------------------|
   C--0-0--------------------10-12-0-0-0-----------------------|
          M     M         M        M     M     M        M

   D-----------------------------------------------------------|
   A-----------------------------------------------------------|
   F------0-12B-12-12\10--10-------------0-12B-12-12\10-10-----|
   C------0-12B-12-12\10--10-------------0-12B-12-12\10-10-----|
   G--0-0--------------------10-12-0-0-0-------------------10-9|
   C--0-0--------------------10-12-0-0-0-------------------10-9|
          M     M         M        M     M     M        M

   VERSE                        FIRST TIME
   D----------------------------|----------------------------|
   A----------------------------|----------------------------|
   F----------------------------|----------------------------|
   C----------------------------|----------------------------|
   G----------------------------|-------------8--------------|
   C---0-0-0-0-12-1212-1212-1010|0-0-12-10-12---12-10-9-10-9-|
            2ND AND 4TH TIME               3RD TIME
   D----------------------------|----------------------------|
   A----------------------------|----------------------------|
   F----------------------------|----------------------------|
   C----------------------------|----------------------------|
   G-----------8----8-8H10-8----|-----------8-----8-7-8-7V---|
   C--12-10-12---12-----------12|-12-10-12-----12------------|

   D-----|
   A-----|
   F-----|
   C-0-0-|
   G-0-0-|
   C-0-0-|

   D ----------------------------------------|
   A ----------------------------------------|
   F ----------------------------------------|(x4)
   C ----------------------------------------|
   G 0--0--12--10-12--15--12-15-15H17--15-12-|
   C 0--0--12--10-12--15--12-15-15H17--15-12-|

   D ---------------------------------------|
   A ---------------------------------------|
   F ---------------------------------------|
   C ---------------------------------------|
   G  -0--0--12--10-12--15--12-10--9--10-9--|
   C  -0--0--12--10-12--15--12-10--9--10-9--|

   D-----------------------------------------|
   A-----------------------------------------|
   F-----------------------------------------|
   C-----------------------------------------|
   G--0--0--12--10-12--15--12-15-15H17--15-14|
   C--0--0--12--10-12--15--12-15-15H17--15-14|

   D---------------------------------------|
   A---------------------------------------|
   F---------------------------------------|
   C---------------------------------------|
   G--0--0--12--10-12--15--12-10--9--10-9--|
   C--0--0--12--10-12--15--12-10--9--10-9--|


   D---------------------------------------|
   A---------------------------------------|
   F---------------------------------------|
   C--------------------------------10-10--|
   G--0--0--12--10-12--15--12-15-12-10-10--|
   C--0--0--12--10-12--15--12-15-12-10-10--|

   OUTRO
   D----------------|---------------------|----------------|
   A----------------|---------------------|----------------|
   F----------------|---------------------|----------------|(x4)
   C----------0-----|-------12---10--10---|--0-------------|
   G----------0-----|-------12---10--10---|-/5-------------|
   C----------0-----|-------12---10--10---|--0-------------|
   PLAY FIRST TIME ONLY                      DON'T PLAY FOURTH TIME
   RIFF 1
   D-------------------------------------------------------|
   A-------------------------------------------------------|
   F-------------------------------------------------------|(x4)
   C--0----------------------10-12V--12-10--------12--10-10|
   G--0---------3-5----10-10----------------12-10-12--10-10|
   C--0--3-3-5------------------------------------12--10-10|

   THERE YOU GO THE HORNED GODDESS BY THE SWORD BEST TAB IN DROP C
   TABBED BY JUSTIN WAYMAN

                             LYRICS
She waits sits astride
Mountains tall and wide
Serpent of earth writhes
Between glacial things

Holy nectar Flowing from celestial teat
Lips of blood and fire gorging on the sacred feast
Bounty of the goddess offered by the avatar
White blood spills with the singing of the scimitar

Holy nectar flowing from celestial teats
Lips of blood and fire gorging on the sacred feast
Bounty of the goddess offered by the avatar
White blood spills with the singing of the scimitars

Upward she flies
Over mountains tall and high
Winds blow her sighs
Suggest correction
What's this?
You can suggest a correction to this tab. Community and Mods will review your correction and vote to approve or reject it.
comments
We did not receive enough feedback on this tab! Please rate:
print report bad tab
1 2 3 4 5
guest
You may want to rate the tab now too:
select rating
Please do not post tabs as comments. Select "correction" instead!