Oops, an error
Loading. Please wait.

The Hidden Masters Tab

4,693 views 18 this week
no commentswrite comment
1 2 3 4 5
excellent!
x 4
add to favorites
launch autoscroll
font size
0
reset
how to read this tab
guitar tuner
Autoscroll
slow
fast
+/-
esc
set tempo
stop
Help us to improve Ultimate-Guitar.com Take our survey!
×
Author
Tuning
C F A# D# G C
-----------------------------------------------------------------------------
                            The Hidden Masters - The Sword
-----------------------------------------------------------------------------
Tabbed by: aaron
E-mail:

Tuning: C standard

these are just the basic riffs for the song

at first just play this up 12 frets
e|--------------------------------------------------------------------------------------------|
B|--------------------------------------------------------------------------------------------|
G|--------------------------------------------------------------------------------------------|
D|--5h7----5----------------------------------------------------------------------5-----------|
A|----------------7-----5--------5------------------3---------------------3---5/7---7-5---5---|
E|---------------------------8-------8----5--3--5-------3-----0----3--5-----------------8-----|


e|----------------------------------------------------------------------------------------|
B|----------------------------------------------------------------------------------------|
G|----------------------------------------------------------------------------------------|
D|----------------------------------------------------------------------------------------|
A|----------------------------------------------------------------------------------------|
E|----5----5----3--5----5----3--5----5----3--5----5----3--5----5----3--5----5----3--------|

     pm---|   pm---|   pm---|    
e|---------------------------------------------------------------------------|
B|---------------------------------------------------------------------------|
G|---------------------------------------------------------------------------|
D|---------------------------------------------------------------------------|
A|-7--7--7--7--7--7--9--9--9--10--9--7---------------------------------------|
E|-5--5--5--5--5--5--7--7--7--8---7--5---------------------------------------|


e|----------------------------------------------------------------------------------------|
B|----------------------------------------------------------------------------------------|
G|----------------------------------------------------------------------------------------|
D|----------------------------------------------------------------------------------------|
A|-------------------3---------------------------3---------------------------3------------|
E|--5----5----0--3h5---5--3--0--5----5----0--3h5---5--3--0--5----5----0--3h5---5--3--0----|

    pm------|                   pm------|            pm------|
e|-----------------------------------------------------------------------------------------------|
B|-----------------------------------------------------------------------------------------------|
G|-----------------------------------------------------------------------------------------------|
D|-----------------------------------------------------------------------------------------------|
A|---7--7--7--7---------3--------7--7--7--7--------3--7--7--7--7--------3--------7-----5---------|
E|---5--5--5--5----3h5-----5--3--5--5--5--5----3h5----5--5--5--5----3h5---5--3---5-----3---------|



************************************

| /   slide up
| \   slide down
| h   hammer-on
| p   pull-off
| ~   vibrato
| +   harmonic
| x   Mute note
| b   Bend
| pb  Pre-bend
| br  Bend release
| pbr Pre-bend release
| brb Bend release bend

************************************
Suggest correction
comments
print report bad tab
guest
You may want to rate the tab now too:
select rating
Please do not post tabs as comments. Select "correction" instead!