Oops, an error
Loading. Please wait.

To Take The Black Acoustic tab

version 2
version 2

Whole song

Interactive

7,185 views 6 this week
1 commentread comment
1 2 3 4 5
1 last vote to show rating
add to favorites
×
Save as Personal and add changes to this tab that will be seen only by you. Learn more ›
×
You can save this tab as Personal to edit and correct it or add notes. All changes will be seen only by you. Learn more »
launch autoscroll
font size
0
reset
how to read this tab
guitar tuner
edit
Autoscroll
slow
fast
+/-
esc
set tempo
stop
Author
-------------------------------------------------------------------------------
To Take The Black (Acoustic) – The Sword
-------------------------------------------------------------------------------

This song is on the album Gods of the Earth, and its marked as the untitled hidden track 
is the last song. Its an awesome song to jam to since the chorus keeps repeating. ENJOY!

Intro: (2x)
e|------------------------------------|
B|------------------------------------|
G|------------------------------------|
D|------7----------------5------------|
A|------------------------------------|
E|--7---------------5-----------------|

Verse:
e|-----------------------------------------------------------------|
B|-----------------------------------------------------------------|
G|-----------------------------------------------------------------|
D|------7---8-7----7---8-7----7-------5---8-7----7-8-7-------------|
A|--------------10---------10-----------------10-------10-8-7------| (2x)
E|--7-----------------------------5---------------------------10---|

e|---------------------------------------------------------------------|
B|---------------------------------------------------------------------|
G|---------------------------------------------------------------------|
D|------7---8-7----7---8-7------------5--8-7----7--8--7----------------|
A|--------------10---------10-7--8-----------10----------10--8--7------| (2x)
E|--7------------------------------5-------------------------------10--|


Solo: (gtr.1)
e|------------------------------------------------------|
B|------------------------------------------------------|
G|-----------------------------------12-----------------|
D|---------10-12-10--12-10-10h12-12--------------10-12--|
A|------12------------------------------------12--------|
E|------------------------------------------------------|

Rhythm: (gtr.2)
e|------------------------------------------------------|
B|------------------------------------------------------|
G|------------------------------------------------------|
D|------7----------------------------5------------------|
A|------------------------------------------------------|
E|--7----------------------------5-----5-7-5------------|

(gtr.1)
e|-----------------------------------------------|
B|-----------------------------------------------|
G|--------12----9h10-9-9\12-12--10-9-9h10-9--7---|
D|--12b14----12----------------------------------|
A|-----------------------------------------------|
E|-----------------------------------------------|

(gtr.2)
e|----------------------------------------------|
B|----------------------------------------------|
G|----------------------------------------------|
D|--------7---------------------5---------------|
A|----------------------------------------------|
E|--7-----------------------5-------------------|

Chorus: (10x)
e|------------------------------------------------------------------------|
B|------------------------------------------------------------------------|
G|------------------------------------------------------------------------|
D|--7-7-5-5h7p5---5-----7-7-10-10h12p10----10-------7-7-5-5h7p5---5-------|
A|--7-7---------7--h7-5-7-7-------------12---h12-10-7-7---------7--h7-5---|
E|--7-7-----------------7-7-------------------------7-7-------------------|

e|-----------------------------|
B|-----------------------------|
G|-----------------------------|
D|--10-10h12\14-12--10h12\14---|
A|--10-10h12\14-12--10h12\14---|
E|--10-10h12\14-12--10h12\14---|

Outro:
e|--12--12------12--12------12--12-----|
B|--13--13------13--13------13--13-----|
G|--14--14------14--14------14--14-----|
D|-------------------------------------|
A|-------------------------------------|
E|-------------------------------------|


| /  slide up
| \  slide down
| h  hammer-on
| p  pull-off
| ~  vibrato
| +  harmonic
| x  Mute note
===============================================================================

            
            
Suggest correction
Creating personal tab
Creating personal tab
You can edit any tab online and save it as your Personal.

You can edit, replace or remove any tab part or add personal notes – all changes will be seen only by you.

Personal tabs can be accessed anytime from any device, even offline.
Learn more »
Give kudos to tab author, rate the tab!
1 2 3 4 5
comments
print report bad tab
1 comment total.
0 reply
youngxsuh 10 Dec 19, 2014 11:49 AM

hey dude and other peeps who view this tab, instead of
e|------------------------------------|
B|------------------------------------|
G|------------------------------------|
D|------7----------------5------------|
A|------------------------------------|
E|--7---------------5-----------------|...
it should be this -->
e|------------------------------------|
B|------------------------------------|
G|------------------------------------|
D|------7----------------5------------|
A|------------------------------------|
E|--5---------------3-----------------|
it sounds like he's doing octaves so try that out. You could even just do this to make it easier when playing the riff in between the chords
e|------------------------------------|
B|------------------------------------|
G|------------------------------------|
D|------7----------------5------------|
A|--0---------------------------------|
E|------------------5-----------------|
also I play the verse like this, it sounds the same only you won't be going back and forth to play the riffs between the chords. (+some minor changes)
e|-----------------------------------------------------------------|
B|-----------------------------------------------------------------|
G|----------------------------------------3-2---2-3-2--------------|
D|------7---8-7----7---8-7----7-------5-------5-------5-3-2--------|
A|--0-----------10---------10-------------------------------5-3----| (2x)
E|--------------------------------3--------------------------------|

e|----------------------------------------------------------------------|
B|----------------------------------------------------------------------|
G|---------------------------------------3-2---2--3--2------------------|
D|------7---8-7----7---8-7------------5------5-----------5---3--2-------|
A|--0-----------10---------10-7--8----------------------------------5-3-| (2x)
E|---------------------------------3------------------------------------|
other than that tab was hella straight thanks dude

guest
You may want to rate the tab now too:
select rating
Wanna post a correction for this tab? Suggest correction