Oops, an error
Loading. Please wait.

Winters Wolves tab

version 2
version 2

Whole song

Interactive

2,901 views 1 this week
1 commentread comment
1 2 3 4 5
2 more votes to show rating
add to favorites
×
Save as Personal and add changes to this tab that will be seen only by you. Learn more ›
×
You can save this tab as Personal to edit and correct it or add notes. All changes will be seen only by you. Learn more »
launch autoscroll
font size
0
reset
how to read this tab
guitar tuner
edit
Autoscroll
slow
fast
+/-
esc
set tempo
stop
                                Winter's Wolves                                 


                                                                       The Sword
Rhythm  Guitar



       |---3--|                    |---3--|  |--3-|  |-3-|          
       E   E  E  H.            5x  E   E  E  Q    E  E   Q    Q     
C ||---------------------------||----------------------------------|
G ||---------------------------||----------------------------------|
D#||*-------------------------*||----------------------------------|
A#||*-------------------------*||--------------------7S--9----9----|
F ||---------------------------||--------------------5S--7----7----|
C ||---1p--0--0--0-------------||--1p--0--0--0----0----------------|


    |---3--|                    |---3--|  |--3-|  |-3-|    |--3-|   
    E   E  E  H.            3x  E   E  E  Q    E  E   Q    Q    E   
|---------------------------||-------------------------------------|
|---------------------------||-------------------------------------|
|*-------------------------*||-------------------------------------|
|*-------------------------*||--------------------7S--9----9-------|
|---------------------------||--------------------5S--7----7-------|
|---1p--0--0--0-------------||--1p--0--0--0----0----------------0--|


  |-3-|    |--3-|       |---3--|                  
  E   Q    Q    E       E   E  E  H.            3x
-------------------||---------------------------||
-------------------||---------------------------||
-------------------||*-------------------------*||
--7S--9----9-------||*-------------------------*||
--5S--7----7-------||---------------------------||
----------------0--||---1p--0--0--0-------------||


  |---3--|  |--3-|  |-3-|    |--3-|       |-3-|    |--3-|     
  E   E  E  Q    E  E   Q    Q    E       E   Q    Q    E   9x
-------------------------------------||---------------------||
-------------------------------------||---------------------||
-------------------------------------||*-------------------*||
--------------------7S--9----9-------||*--7S--9----9-------*||
--------------------5S--7----7-------||---5S--7----7--------||
--1p--0--0--0----0----------------0--||-----------------0---||


  |-3-|    |--3-|  |-3-|              |--3-|  3          |-3|     3   
  E   Q    Q    E  E   Q     Q        Q    E  Q     Q    E  Q     E   
-----------------------------------|---------------------------------|
-----------------------------------|---------------------------------|
-----------------------------------|---------------------------------|
--7S--9----9-------7S--9-----------|----------7S----9-------7S----9--|
--5S--7----7-------5S--7-----------|----------5S----7-------5S----7--|
----------------0-----------12\----|--0----0-------------0-----------|


  |--3-|  3          3          |--3-|  3          |-3|     3   
  Q    E  Q     Q    E  Q       Q    E  Q     Q    E  Q     E   
-----------------------------|---------------------------------|
-----------------------------|---------------------------------|
-----------------------------|---------------------------------|
--L-------7S----9-------9----|----------7S----9-------7S----9--|
--L-------5S----7-------7----|----------5S----7-------5S----7--|
-------0-------------0-------|--0----0-------------0-----------|


  |--3--|  3          3          |--3-|  3          |-3|     3   
  E  E  E  Q     Q    E  Q       Q    E  Q     Q    E  Q     E   
------------------------------|---------------------------------|
------------------------------|---------------------------------|
------------------------------|---------------------------------|
--L--L-----9S----7-------7----|----------7S----9-------7S----9--|
--L--L-----7S----5-------5----|----------5S----7-------5S----7--|
--------0-------------0-------|--0----0-------------0-----------|


  |--3-|  3          3          |--3-|  3          |-3|    3   
  Q    E  Q     Q    E  Q       Q    E  Q     Q    E  Q    E   
-----------------------------|--------------------------------|
-----------------------------|--------------------------------|
-----------------------------|--------------------------------|
--L-------7S----9-------9----|----------7S----9-------9----7--|
--L-------5S----7-------7----|----------5S----7-------7----5--|
-------0-------------0-------|--0----0-------------0----------|


  |--3--|  |----3----|              |--3-|  |-3|    |--3-|  |-3|       
  E  E  E  Q    Q    Q    Q         Q    E  E  Q    Q    E  E  Q     4x
-------------------------------||------------------------------------||
-------------------------------||------------------------------------||
-------------------------------||*----------------------------------*||
--L--L-------------------------||*----------------------------------*||
--L--L-------------------------||------------------------------------||
--------0--3----0----L----L----||---0----0--0--0----0----0--0--0-----||


   |--3-|  |-3|    |--3-|  |-3|       |--3-|  |-3|    |--3-|  |-3|     
   Q    E  E  Q    Q    E  E  Q       Q    E  E  Q    Q    E  E  Q     
-----------------------------------|----------------------------------|
-----------------------------------|----------------------------------|
*----------------------------------|----------------------------------|
*----------------------------------|----------------------------------|
-----------------------------------|----------------------------------|
---0----0--0--0----0----0--0--0----|--0----0--0--0----0----0--0--0----|


  |--3-|  |-3|    |--3-|  |-3|       |-3|    |--3-|  |--3-|          
  Q    E  E  Q    Q    E  E  Q       E  Q    Q    E  Q    E  Q       
----------------------------------|--------------------------------||
----------------------------------|--------------------------------||
----------------------------------|-------------------------------*||
----------------------------------|--9--8----8--------------------*||
----------------------------------|--7--6----6---------------------||
--0----0--0--0----0----0--0--0----|---------------0--6----0--6-----||


   |--3-|  |--3-|  |--3-|  |--3-|     |--3-|  |--3-|  |--3-|  |--3-|   
   Q    E  Q    E  Q    E  Q    E     Q    E  Q    E  Q    E  Q    E   
-----------------------------------|----------------------------------|
-----------------------------------|----------------------------------|
*----------------------------------|----------------------------------|
*--9----9--9----9--9----9--9----9--|--9----9--9----9--9----9--9----9--|
---7----7--7----7--7----7--7----7--|--7----7--7----7--7----7--7----7--|
---0----0--0----0--0----0--0----0--|--0----0--0----0--0----0--0----0--|


  |--3--|       |--3--|          |--3--|  |--3-|  |--3-|  |-3|       
  E  E  E  Q    E  E  E  Q       E  E  E  Q    E  Q    E  E  Q       
------------------------------|------------------------------------||
------------------------------|------------------------------------||
------------------------------|-----------------------------------*||
--9--9--9--9----9--9--9--9----|--8--8--8--8-----------------------*||
--7--7--7--7----7--7--7--7----|--6--6--6--6------------------------||
------------------------------|----------------0--6----0--6--L-----||


  |--3-|  |--3-|  |--3-|  |--3-|     |--3-|  |--3-|  |--3-|  |--3-|   
  Q    E  Q    E  Q    E  Q    E     Q    E  Q    E  Q    E  Q    E   
----------------------------------|----------------------------------|
----------------------------------|----------------------------------|
----------------------------------|----------------------------------|
----------------------------------|----------------------------------|
--7---------------L-------8----7--|------------------L-------8----7--|
--5----L--L----L--L----0--6----5--|--L----L--L----L--L----0--6----5--|


  |--3--|  |--3-|  |--3-|  |--3-|            |3|             
  E  E  E  Q    E  Q    E  Q    E     Q.     S E  Q    Q     
-----------------------------------|------------------------|
-----------------------------------|------------------------|
-----------------------------------|------------------------|
-----------------------------------|--------------8----8----|
-------------------L-------8----7--|---------L----6----6----|
--L--L--L--L----L--L----0--6----5--|--L------L-0------------|


  |--3-|  |--3-|  |--3-|  |--3-|     |--3-|  |--3-|  |--3-|  |--3-|   
  Q    E  Q    E  Q    E  Q    E     Q    E  Q    E  Q    E  Q    E   
----------------------------------|----------------------------------|
----------------------------------|----------------------------------|
----------------------------------|----------------------------------|
----------------------------------|----------------------------------|
--7---------------L-------8----7--|------------------L-------8----7--|
--5----L--L----L--L----0--6----5--|--L----L--L----L--L----0--6----5--|


  |--3--|  |--3-|  |--3-|  |--3-|            |3|             
  E  E  E  Q    E  Q    E  Q    E     Q.     S E  Q    Q     
-----------------------------------|------------------------|
-----------------------------------|------------------------|
-----------------------------------|------------------------|
-----------------------------------|------------------------|
-------------------L-------8----7--|--L-----------3----3----|
--L--L--L--L----L--L----0--6----5--|--L------L-0--1----1----|


  |--3--|  |--3--|  |--3--|  |--3--|       |--3--|  |--3--|  |--3--|  |--3--|   
  E  E  E  E  E  E  E  E  E  E  E  E       E  E  E  E  E  E  E  E  E  E  E  E   
--------------------------------------||---------------------------------------|
--------------------------------------||---------------------------------------|
--------------------------------------||*--------------------------------------|
--------------------------------------||*--------------------------------------|
--------------------------------------||---------------------------------------|
--0--0--0--0--0--0--0--0--0--0--0--0--||---1--0--0--0--0--0--0--0--0--0--0--0--|


  |---3--|  |--3--|  |--3--|  |--3--|     |--3--|  |--3--|  |--3--|  |--3--|   
  E   E  E  E  E  E  E  E  E  E  E  E     E  E  E  E  E  E  E  E  E  E  E  E   
---------------------------------------|--------------------------------------|
---------------------------------------|--------------------------------------|
---------------------------------------|--------------------------------------|
---------------------------------------|--------------------------------------|
---------------------------------------|--------------------------------------|
--2b--0--0--0--0--0--0--0--0--0--0--0--|--6--4--6--4--6--4--6--4--6--4--6--4--|


  |---3--|  |--3--|  |--3--|  |--3--|     
  E   E  E  E  E  E  E  E  E  E  E  E   3x
----------------------------------------||
----------------------------------------||
---------------------------------------*||
---------------------------------------*||
----------------------------------------||
--6b--0--0--0--0--0--0--0--0--0--0--0---||


  |--3--|  |--3--|  |--3--|  |--3--|     |---3--|  |--3--|  |--3--|  |--3--|   
  E  E  E  E  E  E  E  E  E  E  E  E     E   E  E  E  E  E  E  E  E  E  E  E   
--------------------------------------|---------------------------------------|
--------------------------------------|---------------------------------------|
--------------------------------------|---------------------------------------|
--------------------------------------|---------------------------------------|
--------------------------------------|---------------------------------------|
--1--0--0--0--0--0--0--0--0--0--0--0--|--2b--0--0--0--0--0--0--0--0--0--0--0--|


  |--3--|  |--3--|  |--3--|  |--3--|            |--3--|  |--3--|  |--3--|   
  E  E  E  E  E  E  E  E  E  E  E  E       Q    E  E  E  E  E  E  E  E  E   
--------------------------------------||-----------------------------------|
--------------------------------------||-----------------------------------|
--------------------------------------||*----------------------------------|
--------------------------------------||*--9----------------------------7--|
--------------------------------------||---7----------------------------5--|
--6--4--6--4--6--4--6--4--6--4--6--4--||--------0--0--0--0--0--0--0--0-----|


       |--3--|  |--3--|  |--3--|          |--3--|  |--3--|  |--3--|   
  Q    E  E  E  E  E  E  E  E  E     Q    E  E  E  E  E  E  E  E  E   
----------------------------------|----------------------------------|
----------------------------------|----------------------------------|
----------------------------------|----------------------------------|
--9----------------------------7--|--9-------------------------------|
--7----------------------------5--|--7-------------------------------|
-------0--0--0--0--0--0--0--0-----|-------0--0--0--0--0--0--0--0--0--|


  |--3--|  |--3--|  |--3--|  |--3--|          |--3--|  |--3--|  |--3--|   
  E  E  E  E  E  E  E  E  E  E  E  E     Q    E  E  E  E  E  E  E  E  E   
--------------------------------------|----------------------------------|
--------------------------------------|----------------------------------|
--------------------------------------|----------------------------------|
--------------------------------------|--9----------------------------7--|
--5--4--5--4--5--4--5--4--5--4--5--4--|--7----------------------------5--|
--------------------------------------|-------0--0--0--0--0--0--0--0-----|


       |--3--|  |--3--|  |--3--|          |--3--|  |--3--|  |--3--|   
  Q    E  E  E  E  E  E  E  E  E     Q    E  E  E  E  E  E  E  E  E   
----------------------------------|----------------------------------|
----------------------------------|----------------------------------|
----------------------------------|----------------------------------|
--9----------------------------7--|--9-------------------------------|
--7----------------------------5--|--7-------------------------------|
-------0--0--0--0--0--0--0--0-----|-------0--0--0--0--0--0--0--0--0--|


  |--3--|  |--3--|  |--3--|  |--3--|       |--3-|  |--3--|  |--3--|  |--3--|   
  E  E  E  E  E  E  E  E  E  E  E  E       Q    E  E  E  E  E  E  E  E  E  E   
---------------------------------------||-------------------------------------|
---------------------------------------||-------------------------------------|
--------------------------------------*||-------------------------------------|
--------------------------------------*||--9----9--9--9--9--9--9--9--9--9--7--|
--7--5--7--5--7--5--7--5--7--8--7--5---||--7----7--7--7--7--7--7--7--7--7--5--|
---------------------------------------||-------------------------------------|


  |--3-|  |--3--|  |--3--|  |--3--|     |--3-|  |--3--|  |--3--|  |--3--|   
  Q    E  E  E  E  E  E  E  E  E  E     Q    E  E  E  E  E  E  E  E  E  E   
-------------------------------------|-------------------------------------|
-------------------------------------|-------------------------------------|
-------------------------------------|-------------------------------------|
--9----9--9--9--9--9--9--9--9--9--7--|--9----9--9--9--9--9--9--9--9--9--7--|
--7----7--7--7--7--7--7--7--7--7--5--|--7----7--7--7--7--7--7--7--7--7--5--|
-------------------------------------|-------------------------------------|


  |--3--|  |--3--|  |--3-|  |--3-|     |--3-|  |--3--|  |--3--|  |--3--|   
  E  E  E  E  E  E  Q    E  Q    E     Q    E  E  E  E  E  E  E  E  E  E   
------------------------------------|-------------------------------------|
------------------------------------|-------------------------------------|
------------------------------------|-------------------------------------|
--7--7--7--7--7--7--7----6--7----6--|--9----9--9--9--9--9--9--9--9--9--7--|
--5--5--5--5--5--5--5----4--5----4--|--7----7--7--7--7--7--7--7--7--7--5--|
------------------------------------|-------------------------------------|


  |--3-|  |--3--|  |--3--|  |--3--|     |--3-|  |--3--|  |--3--|  |--3--|   
  Q    E  E  E  E  E  E  E  E  E  E     Q    E  E  E  E  E  E  E  E  E  E   
-------------------------------------|-------------------------------------|
-------------------------------------|-------------------------------------|
-------------------------------------|-------------------------------------|
--9----9--9--9--9--9--9--9--9--9--7--|--9----9--9--9--9--9--9--9--9--9--7--|
--7----7--7--7--7--7--7--7--7--7--5--|--7----7--7--7--7--7--7--7--7--7--5--|
-------------------------------------|-------------------------------------|


  |--3--|        |---3---|             |--3--|  |--3--|  |--3--|  |--3--|   
  E  E  E  Q     E   E   E   Q         E  E  E  E  E  E  E  E  E  E  E  E   
----------------------------------||---------------------------------------|
----------------------------------||---------------------------------------|
----------------------------------||*--------------------------------------|
--7--7--7--7----10--10--10--10----||*--------------------------------------|
--5--5--5--5-----8---8---8---8----||---------------------------------------|
----------------------------------||---0--0--0--1--1--1--4--4--4--3--3--3--|


  |-3-|    |--3-|  |-3-|    |--3-|     
  E   Q    Q    E  E   Q    Q    E     
-------------------------------------||
-------------------------------------||
------------------------------------*||
--7S--9----9-------7S--9----9-------*||
--5S--7----7-------5S--7----7--------||
----------------0----------------0---||


   |--3--|  |--3--|   |---3---|   |---3---|   
   E  E  E  E  E  E   E   E   E   E   E   E   
---------------------------------------------|
---------------------------------------------|
*--------------------------------------------|
*--------------------------------------------|
---7--7--7--8--8--8--11--11--11--10--10--10--|
---------------------------------------------|


  |-3-|    |--3-|  |-3-|    |--3-|        |-3-|    |--3-|  |-3-|    |--3-|     
  E   Q    Q    E  E   Q    Q    E        E   Q    Q    E  E   Q    Q    E   4x
-------------------------------------||--------------------------------------||
-------------------------------------||--------------------------------------||
------------------------------------*||*------------------------------------*||
--7S--9----9-------7S--9----9-------*||*--7S--9----9-------7S--9----9-------*||
--5S--7----7-------5S--7----7--------||---5S--7----7-------5S--7----7--------||
----------------0----------------0---||-----------------0----------------0---||


  |-3-|    |--3-|  |-3-|                |--3-|  3         |-3|    3   
  E   Q    Q    E  E   Q     Q          Q    E  Q    Q    E  Q    E   
-----------------------------------||--------------------------------|
-----------------------------------||--------------------------------|
-----------------------------------||*-------------------------------|
--7S--9----9-------7S--9-----------||*----------7----9-------7----9--|
--5S--7----7-------5S--7-----------||-----------5----7-------5----7--|
----------------0-----------12\----||---0----0------------0----------|


  |--3-|  3         3          |--3-|  3         |-3|    3   
  Q    E  Q    Q    E  Q       Q    E  Q    Q    E  Q    E   
----------------------------|-------------------------------|
----------------------------|-------------------------------|
----------------------------|-------------------------------|
--L-------7----9-------9----|----------7----9-------7----9--|
--L-------5----7-------7----|----------5----7-------5----7--|
-------0------------0-------|--0----0------------0----------|


  |--3--|  3         3          |--3-|  3         |-3|    3   
  E  E  E  Q    Q    E  Q       Q    E  Q    Q    E  Q    E   
-----------------------------|-------------------------------|
-----------------------------|-------------------------------|
-----------------------------|-------------------------------|
--L--L-----9----7-------7----|----------7----9-------7----9--|
--L--L-----7----5-------5----|----------5----7-------5----7--|
--------0------------0-------|--0----0------------0----------|


  |--3-|  3         3          |--3-|  3         |-3|    3   
  Q    E  Q    Q    E  Q       Q    E  Q    Q    E  Q    E   
----------------------------|-------------------------------|
----------------------------|-------------------------------|
----------------------------|-------------------------------|
--L-------7----9-------9----|----------7----9-------9----7--|
--L-------5----7-------7----|----------5----7-------7----5--|
-------0------------0-------|--0----0------------0----------|


  |--3--|  |----3----|               |---3--|                  
  E  E  E  Q    Q    Q    Q          E   E  E  H.            7x
--------------------------------||---------------------------||
--------------------------------||---------------------------||
-------------------------------*||*-------------------------*||
--L--L-------------------------*||*-------------------------*||
--L--L--------------------------||---------------------------||
--------0--3----0----L----L-----||---1p--0--0--0-------------||


  |---3--|  |--3-|  |-3-|    |--3-|       |---3--|                  
  E   E  E  Q    E  E   Q    Q    E       E   E  E  H.            3x
-------------------------------------||---------------------------||
-------------------------------------||---------------------------||
-------------------------------------||*-------------------------*||
--------------------9S--7----7-------||*-------------------------*||
--------------------7S--5----5-------||---------------------------||
--1p--0--0--0----0----------------0--||---1p--0--0--0-------------||


  |---3--|  |--3-|  |--3-|            |---3--|                  
  E   E  E  Q    E  Q    E  Q         E   E  E  H.            3x
---------------------------------||---------------------------||
---------------------------------||---------------------------||
---------------------------------||*-------------------------*||
---------------------------------||*-------------------------*||
-----------------7--8----8--5----||---------------------------||
--1p--0--0--0----5--6----6--3----||---1p--0--0--0-------------||


  |---3--|  |--3-|  |-3-|    |--3-|       |---3--|                  
  E   E  E  Q    E  E   Q    Q    E       E   E  E  H.            3x
-------------------------------------||---------------------------||
-------------------------------------||---------------------------||
-------------------------------------||*-------------------------*||
--------------------9S--7----7-------||*-------------------------*||
--------------------7S--5----5-------||---------------------------||
--1p--0--0--0----0----------------0--||---1p--0--0--0-------------||


  |---3--|  |--3-|   |--3-|            |---3--|                  
  E   E  E  Q    E   Q    E  Q         E   E  E  H.            3x
----------------------------------||---------------------------||
----------------------------------||---------------------------||
----------------------------------||*-------------------------*||
----------------------------------||*-------------------------*||
-----------------7S--8----8--5----||---------------------------||
--1p--0--0--0----5S--6----6--3----||---1p--0--0--0-------------||


  |---3--|  |--3-|  |--3-|                                                 
  E   E  E  Q    E  Q    E  Q       W                   W                  
---------------------------------|-------------------|-------------------||
---------------------------------|-------------------|-------------------||
---------------------------------|-------------------|-------------------||
-----------------7--9----9--7----|--L----------------|--L----------------||
-----------------5--7----7--5----|--L----------------|--L----------------||
--1p--0--0--0--------------------|-------------------|-------------------||




Duration Legend
---------------
W - whole
H - half
Q - quarter
E - 8th
S - 16th
T - 32nd
X - 64th
. - note dotted
|-n-|  - n-tuplets


Tablature Legend
----------------
L - tied note
x - dead note
g - grace note
(n) - ghost note
> - accentuded note
NH - natural harmonic
AH - artificial harmonic
TH - tapped harmonic
SH - semi harmonic
PH - pitch harmonic
h - hammer on
p - pull off
b - bend
br - bendRelease
pb - preBend
pbr - preBendRelease
brb - bendReleaseBend
\n/ - tremolo bar dip
\n - tremolo bar dive
-/n - tremolo bar Release up
/n\ - tremolo bar inverted dip
/n - tremolo bar return
-\n - tremolo bar Release down
S - shift slide
s - legato slide
/ -  slide into from below or out of upwards
\ -  slide into from above or out of downwards
~ - vibrato
W - wide vibrato
tr - trill
TP - tremolo picking
T - tapping
S - slap
P - pop
< - fade in
^ - brush up
v - brush down
Suggest correction
Creating personal tab
Creating personal tab
You can edit any tab online and save it as your Personal.

You can edit, replace or remove any tab part or add personal notes – all changes will be seen only by you.

Personal tabs can be accessed anytime from any device, even offline.
Learn more »
Give kudos to tab author, rate the tab!
1 2 3 4 5
comments
print report bad tab
1 comment total.
+1 reply
SteveWizzle 290 May 27, 2008 06:55 PM

The tuning for this song is actually C Standard.

guest
You may want to rate the tab now too:
select rating
Wanna post a correction for this tab? Suggest correction