Oops, an error
Loading. Please wait.

Oaoao Tab

4 views 3 this week
no commentswrite comment
1 2 3 4 5
3 more votes to show rating
add to favorites
launch autoscroll
font size
0
reset
how to read this tab
guitar tuner
Autoscroll
slow
fast
+/-
esc
set tempo
stop
Help us to improve Ultimate-Guitar.com Take our survey!
×
Author
Difficulty
intermediate
[Intro]
A D       A      Bm  G            D        A     G
e|---2--0-----------------------------2--0-------------------|
B|-3------3-2--3-2-0---0-2-3--2-3---3------3-2-3---3-3-2-0---|
G|-----------------------------------------------------------|
D|-----------------------------------------------------------|
A|-----------------------------------------------------------|
E|-----------------------------------------------------------|
D          A      Bm  G            D        A     G         A
e|---0-2-0----------------------------2--0------------------------|
B|-3-------3-2--3-2-0---0-2-3--2-3--3------3-2-3--3-3-2-0--2--2-3-|
G|----------------------------------------------------------------|
D|----------------------------------------------------------------|
A|----------------------------------------------------------------|
E|----------------------------------------------------------------|


[Verse 1]
D       A               Bm
  Never had the time to think twice
   G                     D
My father gave me this advice
                        Bm         G
You gotta stick to your guns, son
        D                    A
There’s gonna be a choice to make
       Bm                 G
You’re gonna have dues to pay
            D                   Bm
You know in life and everything else
G
  You’re gonna make it
Em   G  A


[Chorus]
 D G Bm         A                D
(Oaoao) still a long long way to go
   G Bm    A                  D
(Oaoao) to get on to the next show
   G Bm        A
(Oaoao) You’ll never know the
             G               Em
Not tomorrow playin’ in some show
A                      D
This is what we got to do


[Intro]
 D        A       Bm  G             D        A     G
e|---2--0-----|---------------|---------2--0-------------------|
B|-3------3-2-|-3-2-0---0-2-3-|-2-3---3------3-2-3---3-3-2-0---|
G|------------|---------------|--------------------------------|
D|------------|---------------|--------------------------------|
A|------------|---------------|--------------------------------|
E|------------|---------------|--------------------------------|
D          A       Bm  G             D        A     G         A
e|---0-2-0-----|--------------------|---2--0------------------------|
B|-3-------3-2-|-3-2-0---0-2-3--2-3-|-3------3-2-3--3-3-2-0--2--2-3-|
G|-------------|--------------------|-------------------------------|
D|-------------|--------------------|-------------------------------|
A|-------------|--------------------|-------------------------------|
E|-------------|--------------------|-------------------------------|


[Verse 2]
D                            G
  Ten years and still having fun
                                D
Can’t win the race if you don’t run
                         Bm
Now tell me, was my time wasted?
      D                    A
Gotta stick together gonna see it through
     Bm                     G
It’s one of those things we got to do
      D                            Bm
We’ll stay close and fight til the end
G
  We’re gonna make it
Em   G  A


[Chorus]
 D G Bm         A                D
(Oaoao) still a long long way to go
   G Bm    A                  D
(Oaoao) to get on to the next show
   G Bm        A
(Oaoao) You’ll never know the
             G               Em
Not tomorrow playin’ in some show
A                      D
This is what we got to do


[Bridge] 2x
D 
We’re on a board 
e|--------------------------------|
B|--------------------------------|
G|--------------------------------|
D|---------------------4--5--7--5-|
A|---------5--5-5-5--5------------|
E|--------------------------------|
  A                      Bm
           We’re only wasted
e|--------------------------------------|
B|--------------------------------------|
G|--------------------------------------|
D|------------------------------0-------|
A|-----------------------2--2-2---4-2-0-|
E|-5--5-5-5-----------------------------|
       G    Bm       D                   A
          Nowhere to sleep    Nothing to eat
e|--------------------------------------------|
B|--------------------------------------------|
G|--------------------------------------------|
D|----------------------------4--5--7--5------|
A|----------2--2--4--5--5-5-5-----------------|
E|-3--3-3-3------------------------------5--5-|
       D        Bm
   And shows to play
e|----------------------------|
B|----------------------------|
G|----------------------------|
D|--------------------0-------|
A|-4---5-------2--2-2---4-2-0-|
E|----------------------------|
   G       Em    (D)
     We’re on a  (board)
e|-------------------|
B|-------------------|
G|---------------(7)-|
D|---------------(7)-|
A|---------7-7-5--5--|
E|-3--3-3------------|


[Intro]
 D        A       Bm  G             D        A     G
e|---2--0-----|---------------|---------2--0-------------------|
B|-3------3-2-|-3-2-0---0-2-3-|-2-3---3------3-2-3---3-3-2-0---|
G|------------|---------------|--------------------------------|
D|------------|---------------|--------------------------------|
A|------------|---------------|--------------------------------|
E|------------|---------------|--------------------------------|
D          A       Bm  G             D        A     G         A
e|---0-2-0-----|--------------------|---2--0------------------------|
B|-3-------3-2-|-3-2-0---0-2-3--2-3-|-3------3-2-3--3-3-2-0--2--2-3-|
G|-------------|--------------------|-------------------------------|
D|-------------|--------------------|-------------------------------|
A|-------------|--------------------|-------------------------------|
E|-------------|--------------------|-------------------------------|


End on D



************************************

| (n)  Ghost note

************************************
Suggest correction
Give kudos to tab author, rate the tab!
1 2 3 4 5
comments
print report bad tab
guest
You may want to rate the tab now too:
select rating
Wanna post a correction for this tab? Suggest correction