Oops, an error
Loading. Please wait.

Stop Playing Games Chords

1 view 1 this week
no commentswrite comment
1 2 3 4 5
3 more votes to show rating
add to favorites
launch autoscroll
font size
0
reset
transpose
0
reset
display chords
guitar tuner
Autoscroll
slow
fast
+/-
esc
set tempo
stop
Help us to improve Ultimate-Guitar.com Take our survey!
×
Author
Difficulty
novice
[Chorus]
C#           B             F#
Stop playing games with my heart
  C#                  B            F#
I know you think it’s fun but it’s tearing me apart
       C#           B             F#
I said Stop playing games with my heart
  C#                  B            F#
I know you think it’s fun but it’s tearing me apart GO!

 C#       B       F#        G#
e|--------------------------------------|
B|-6--4---4-6-4---------------4--6---4--|
G|------6-------6---3----3--6------6----|
D|---------------------6----------------|
A|--------------------------------------|
E|--------------------------------------|
C#         B             F#
e--------------------------------------|
B-6--4---7-6-4----------4-6------------|
G------6-------6-6----6----------------|
D--------------------------------------|
A--------------------------------------|
E--------------------------------------|
C#       B       F#        G#
e--------------------------------------|
B-6--4---4-6-4---------------4--6---4--|
G------6-------6---3----3--6------6----|
D---------------------6----------------|
A--------------------------------------|
E--------------------------------------|
C#         B             F#
e--------------------------------------|
B-6--4---7-6-4----------4-6----4-------|
G------6-------6-6----6------6---6-----|
D--------------------------------------|
A--------------------------------------|
E--------------------------------------|

[Verse 1]
C#
Way up the mountain top to drag me down
           B                         F#
So you can tell me that you want me again
C#               B
Maybe I lost the last time we talked
                               F#
You said you wanted to be just friends

[Pre-Chorus]
     C#               B
Well times go by, and things they change
    F#                    C#
And one thing remains the same
                                 B
When I look into your eyes I get fooled by the lies
      F#                C#
And I get stuck in your game
F#            G#
   I’m in misery
                 F#   G#
But it’s so much more
Stop being the whore

[Chorus]
C#           B             F#
Stop playing games with my heart
  C#                  B            F#
I know you think it’s fun but it’s tearing me apart
       C#           B             F#
I said Stop playing games with my heart
  C#                  B            F#
I know you think it’s fun but it’s tearing me apart GO!

 C#       B       F#        G#
e|--------------------------------------|
B|-6--4---4-6-4---------------4--6---4--|
G|------6-------6---3----3--6------6----|
D|---------------------6----------------|
A|--------------------------------------|
E|--------------------------------------|

 C#         B             F#
e|--------------------------------------|
B|-6--4---7-6-4----------4-6------------|
G|------6-------6-6----6----------------|
D|--------------------------------------|
A|--------------------------------------|
E|--------------------------------------|

 C#       B       F#        G#
e|--------------------------------------|
B|-6--4---4-6-4---------------4--6---4--|
G|------6-------6---3----3--6------6----|
D|---------------------6----------------|
A|--------------------------------------|
E|--------------------------------------|

 C#         B             F#
e|--------------------------------------|
B|-6--4---7-6-4----------4-6----4-------|
G|------6-------6-6----6------6---6-----|
D|--------------------------------------|
A|--------------------------------------|
E|--------------------------------------|

[Verse 2]
     C#
Well every time I try to live my life
         B                  F#
And move on, put you in the past
         C#
You keep knocking at my door with the same old stories
       B                    F#
Saying this time it’s gonna last

[Pre-Chorus]
C#                    B
Well times go by, and things they change
    F#                    C#
And one thing remains the same
                                 B
When I look into your eyes I get fooled by the lies
      F#                C#
And I get stuck in your game
F#            G#
   I’m in misery
                 F#   G#
But it’s so much more
Stop being the whore

[Chorus]
C#           B             F#
Stop playing games with my heart
  C#                  B            F#
I know you think it’s fun but it’s tearing me apart
       C#           B             F#
I said Stop playing games with my heart
  C#                  B            F#
I know you think it’s fun but it’s tearing me apart GO!
 C#       B       F#        G#
e|--------------------------------------|
B|-6--4---4-6-4---------------4--6---4--|
G|------6-------6---3----3--6------6----|
D|---------------------6----------------|
A|--------------------------------------|
E|--------------------------------------|

 C#         B             F#
e|--------------------------------------|
B|-6--4---7-6-4----------4-6------------|
G|------6-------6-6----6----------------|
D|--------------------------------------|
A|--------------------------------------|
E|--------------------------------------|

 C#       B       F#        G#
e|--------------------------------------|
B|-6--4---4-6-4---------------4--6---4--|
G|------6-------6---3----3--6------6----|
D|---------------------6----------------|
A|--------------------------------------|
E|--------------------------------------|

 C#         B         F#   G#   A  B  C#
e|--------------------------------4-----|
B|-6--4---7-6-4-------------5--7--------|
G|------6-------6-6----8----------------|
D|--------------------------------------|
A|--------------------------------------|
E|--------------------------------------|
                                            I can’t take it anymore
[Now we change the key to E!]
E                          A
Stop playing games with my heart
  D                                A
I know you think it’s fun but it’s tearing me apart
  E                               A
I said Stop playing games with my heart
  D                                A
I know you think it’s fun but it’s tearing me apart GO!

 [Outro]
e|--------------------------------------|
B|-9---7---7-9-7---------------7--9---7-|
G|-------9-------9---6----6--9------9---|
D|----------------------9---------------|
A|--------------------------------------|
E|--------------------------------------|

e|--------------------------------------|
B|-9---7---10-9-7----------7-9----------|
G|-------9--------9-9----9--------------|
D|--------------------------------------|
A|--------------------------------------|
E|--------------------------------------|

e|--------------------------------------|
B|-9---7---7-9-7---------------7--9---7-|
G|-------9-------9---6----6--9------9---|
D|----------------------9---------------|
A|--------------------------------------|
E|--------------------------------------|

e|-----------------------------------------12----|
B|-9---7---10-9-7----------7-9------7------------|
G|-------9--------9-9----9--------9---9----------|
D|-----------------------------------------------|
A|-----------------------------------------------|
E|-----------------------------------------------|
Suggest correction
Give kudos to tab author, rate the tab!
1 2 3 4 5
comments
print report bad tab
guest
You may want to rate the tab now too:
select rating
Wanna post a correction for this tab? Suggest correction